Song name
# A B C D E F G H I J K L M N O P Q R S T U V W X Y Z

Dimmu Borgir - Burn In Hell tab

SONG NAME - Burn in Hell
Tabbed by:Lethalshot877


Tuning: standared

e|-------------------------------------------------|
B|-------------------------------------------------|
G|--16--14--12--14--12--11--12--11--9--11--9--12---|
D|-------------------------------------------------|
A|-------------------------------------------------|
E|-------------------------------------------------|

e|---15-h14-h12------------|
B|--------------15-h14-h12-|
G|-------------------------|
D|-------------------------|
A|-------------------------|
E|-------------------------|
at 3:09, this is played 8 times.


e|---17--15--12--17--15--12---------------------------|
B|----------------------------16^-16^-16^-16^-16^-16^-|
G|----------------------------------------------------|
D|----------------------------------------------------|
A|----------------------------------------------------|
E|----------------------------------------------------|


e|---------------------------------------------------------|
B|--4---2---0---2---2---0---2----4---2---0---2---2---0---2-|
G|--4---2---0---2---2---0---2----4---2---0---2---2---0---2-|
D|---------------------------------------------------------|
A|---------------------------------------------------------|
E|---------------------------------------------------------|
3:18

e|--------------------------------------------------------------------------|
B|---16^--16^--16^--16^--16^---18^--18^--18^---20^--20^--20^---21^----------|
G|--------------------------------------------------------------------------|
D|--------------------------------------------------------------------------|
A|--------------------------------------------------------------------------|
E|--------------------------------------------------------------------------|

e|-----------------------------------------|
B|---4---2---0---2---2---4---2---0---2---2-|
G|---4---2---0---2---2---4---2---0---2---2-|
D|-----------------------------------------|
A|-----------------------------------------|
E|-----------------------------------------|
3:27

e|-------------------------------------------------------------|
B|-------------------------------------------------------------|
G|---14^-14-14-12-14^-14-14-12-14-14-14-12-14-14-14-12-14^-14~-|
D|-------------------------------------------------------------|
A|-------------------------------------------------------------|
E|-------------------------------------------------------------|

e|---------------------|
B|--16^--16^--16^--16^-|
G|---------------------|
D|---------------------|
A|---------------------|
E|---------------------|

| h  hammer-on
| ~  vibrato

Ok this is my first tab so please go easy on me. If you have any questions about this 
e-mail me at johnny877@optonline.net
Tap to rate this tab
 
# A B C D E F G H I J K L M N O P Q R S T U V W X Y Z