Song name
# A B C D E F G H I J K L M N O P Q R S T U V W X Y Z

Dimmu Borgir - Serpentine Offering tab

#----------------------------------PLEASE NOTE---------------------------------#
#This file is the author's own work and represents their interpretation of the #
#song. You may only use this file for private study, scholarship, or research. #
#------------------------------------------------------------------------------##


THE SERPENTINE OFFERING
As recorded by Dimmu Borgir
(From the 2007 Album In Sorte Diaboli)


Tuning: D Standard (DGCFAd)

*= Palm Mute

Tr. means that the riff is played with triplets.

Enjoy!



Intro (0:47)
Guitar 1&2
Q=102
Tr.
e--------------------------|--------------------------|
B--------------------------|--------------------------|
G--------------------------|--------------------------|
D--------------------------|--------------------------|
A--------------------------|--------------------------|
E-333333333333333333333333-|-333333333333333333333333-|
  ************************   ************************

e--------------------------|--------------------------|
B--------------------------|--------------------------|
G--------------------------|--------------------------|
D--------------------------|--------------------------|
A-222222222222222222222222-|--------------------------|
E--------------------------|-333333333333333333333333-|
  ************************   ************************

e--------------------------|--------------------------|
B--------------------------|--------------------------|
G--------------------------|--------------------------|
D--------------------------|--------------------------|
A--------------------------|--------------------------|
E-333333333333333333333333-|-333333333333333333333333-|
  ************************   ************************

e--------------------------|--------------------------|
B--------------------------|--------------------------|
G--------------------------|--------------------------|
D--------------------------|--------------------------|
A-666666666666666666666666-|--------------------------|
E--------------------------|-333333333333333333333333-|
  ************************   ************************

(1:06)
e------------------|------------------|------------------|----------------|
B------------------|------------------|------------------|----------------|
G------------------|------------------|------------------|----------------|
D------------------|------------------|-4~---------------|----------------|
A-5~---------------|-5~---------------|-2~---------------|-5~-------------|
E-3~---------------|-3~---------------|------------------|-3~-------------|

e------------------|------------------|------------------|----------------|
B------------------|------------------|------------------|----------------|
G------------------|------------------|------------------|----------------|
D------------------|------------------|-8~---------------|----------------|
A-5~---------------|-5~---------------|-6~---------------|-5~-------------|
E-3~---------------|-3~---------------|------------------|-3~-------------|


(1:24)
Tr.
e-----------------------|-----------------------|
B-----------------------|-----------------------|
G-----------------------|-----------------------|
D-----------------------|---------------------3-|
A-2222-2222-222222222-3-|-2222-2222-222222222-1-|
E-0000-0000-000000000-1-|-0000-0000-000000000---|
  **** **** *********     **** **** *********

e-----------------------|---------------------------|
B-----------------------|---------------------------|
G-----------------------|---------------------------|
D-----------------------|---------------------------|   
A-2222-2222-222222222-3-|-2222-2222-000-431-000-431-|
E-0000-0000-000000000-1-|-0000-0000-----------------|  X2
  **** **** *********     **** **** 

(1:43)
Guitar 1
Q=157
e------------------|
B------------------|
G------------------|
D------------------|
A-3/6--3/6--3/6--2-|
E-1/4--1/4--1/4--0-|


Guitar 1
e------------------|---------------------0-|
B------------------|---------------------0-|
G------------------|-----------------------|
D------------------|-----------------------|
A-3/6--3/6--3/6--2-|-3/6--3/6--3/6--2~-----|
E-1/4--1/4--1/4--0-|-1/4--1/4--1/4--0~-----|
|
|
Guitar 2
e----------------------------------|
B----------------------------------|
G------------------------------0h1-|
D----3/6-------------------2h3-----|
A----------3/4-------2h3-----------|
E--1-----1-----1-4-0-----0---------|  X4
   *     *     * * *     *

Guitar 1&2
e------------------|---------------------0-|
B------------------|---------------------0-|
G------------------|-----------------------|
D------------------|-----------------------|
A-3/6--3/6--3/6--2-|-3/6--3/6--3/6--2------|
E-1/4--1/4--1/4--0-|-1/4--1/4--1/4--0------|
                                        

(2:23)
Q=102
e-------------------|-------------------|-------------------|-----------|
B-------------------|-------------------|-------------------|-----------|
G-------------------|-------------------|-------------------|-----------|
D--------7~---------|--------7~-----5\4-|--------7~---------|--------7~-|
A-5------5~-----8-4-|-5------5~-----5\4-|-5------5~-----8-4-|-5------5~-|
E-5-------------8-4-|-5-----------------|-5-------------8-4-|-5---------|
  *             * *   *                   *             * *   *	






(2:32)
Tr.
e--------------------------|--------------------------|
B--------------------------|--------------------------|
G--------------------------|--------------------------|
D--------------------------|--------------------------|
A--------------------------|--------------------------|
E-333333333333333333333333-|-333333333333333333333333-|
  ************************   ************************

e--------------------------|--------------------------|
B--------------------------|--------------------------|
G--------------------------|--------------------------|
D--------------------------|--------------------------|
A-222222222222222222222222-|--------------------------|
E--------------------------|-333333333333333333333333-|
  ************************   ************************

(2:32)
e------------------|------------------|------------------|----------------|
B------------------|------------------|------------------|----------------|
G------------------|------------------|------------------|----------------|
D------------------|------------------|-4~---------------|----------------|
A-5~---------------|-5~---------------|-2~---------------|-5~-------------|
E-3~---------------|-3~---------------|------------------|-3~-------------|

e------------------|------------------|------------------|----------------|
B------------------|------------------|------------------|----------------|
G------------------|------------------|------------------|----------------|
D------------------|------------------|-8~---------------|----------------|
A-5~---------------|-5~---------------|-6~---------------|-5~-------------|
E-3~---------------|-3~---------------|------------------|-3~-------------|


(3:00)
Q=140
e------------------|--------------------------|----------------|
B------------------|--------------------------|----------------|
G------------------|--------------------------|----------------|
D------------------|--------------------------|----------------|
A-7~-----777-5-7h8-|-7~--22~--777-555-3-2h3-2-|-7~-----7-5-3\2-|
E-5~---------------|-----00~------------------|-5~-------------|
         *** *                *** *** *                * * 

e---------------------------|
B---------------------------|
G---------------------------|
D---------------------------|
A-2~----2~------2~-------2~-|
E-----000~----0-0~---0-0-0~-|  X2
      **      *      * *

(3:28)
e--------------------------------|---------------------------------|
B--------------------------------|---------------------------------|
G--------------------------------|---------------------------------|
D-----------------------2-3/5-6~-|-----------------------6-7/8-10~-|
A---3---4-3---3-----3/4----------|---7---8-7---7-----7/8-----------|
E-1---1-----4---4-1--------------|-5---5-----8---8-5---------------|
  *   *     *   * *                *   *     *   * *

e-----------3---------|--------------------------------|
B-------------4----4~-|--------------------------------|
G-5~------------5--5~-|--------------------------------|
D-5~---------------5~-|--------------------------------|
A-3~---------------3~-|---5---6-5---5-----5---6-5---5~-|
E-3~------------------|-3---3-----6---6-3---3-----6----|
                        *   *     *   * *   *     *

e--------------------------------|---------------------------------|
B--------------------------------|---------------------------------|
G--------------------------------|---------------------------------|
D-----------------------2-3/5-6~-|-----------------------6-7/8-10~-|
A---3---4-3---3-----3/4----------|---7---8-7---7-----7/8-----------|
E-1---1-----4---4-1--------------|-5---5-----8---8-5---------------|
  *   *     *   * *                *   *     *   * *


e---------------------|--------------------------------|----|
B---------------------|--------------------------------|----|
G-5~------------------|--------------------------------|----|
D-6~------------------|---7---8-7---7-----7---8-7---7~-|-2~-|
A-6~------------------|-5---5-----8---8-5---5-----8----|-2~-|
E-4~------------------|--------------------------------|-0~-|
                        *   *     *   * *   *     *

(4:11)
Guitar 1, I dont have Guitar 2
Q=181
Tr.
e--------------------------------------|
B--------------------------------------|
G--------------------------------------|
D--------------------------------------|
A-----------------------------------3~-|
E-0000-00000000-00000000-0000111111-1~-|
  **** ******** ******** **********

e--------------------------------------|
B--------------------------------------|
G--------------------------------------|
D--------------------------------------|
A-----------------------------------3~-|
E-0000-00000000-00000000-0000666666-1~-|
  **** ******** ******** **********

Guitar 1
Q=157
e------------------|
B------------------|
G------------------|
D------------------|
A-3/6--3/6--3/6--2-|
E-1/4--1/4--1/4--0-|


Guitar 1
e------------------|---------------------0-|
B------------------|---------------------0-|
G------------------|-----------------------|
D------------------|-----------------------|
A-3/6--3/6--3/6--2-|-3/6--3/6--3/6--2~-----|
E-1/4--1/4--1/4--0-|-1/4--1/4--1/4--0~-----|
|
|
Guitar 2
e----------------------------------|
B----------------------------------|
G------------------------------0h1-|
D----3/6-------------------2h3-----|
A----------3/4-------2h3-----------|
E--1-----1-----1-4-0-----0---------|  X4
   *     *     * * *     *

Guitar 1&2
e-------------------------------------------|
B-------------------------------------------|
G-------------------------------------------|
D-------------------------------------------|
A-------------------------------------------|
E-1111-4p1-1111-4p1-1111-3p0-000-000-000000-|  X3
  ****     ****     ****     *** *** ******

e------------------------------------|
B------------------------------------|
G------------------------------------|
D------------------------------------|
A----------------------------2---2-2-|
E-1111-4p1-1111-4p1-1111-3p0-0---0-0-|
  ****     ****     ****     *   * *


The End.
Tap to rate this tab
# A B C D E F G H I J K L M N O P Q R S T U V W X Y Z