Song name
# A B C D E F G H I J K L M N O P Q R S T U V W X Y Z

Dimmu Borgir - Blessings Upon The Throne Of Tyranny tab

----------------------------------------------------------------------------
           BLESSINGS UPON THE THRONE OF TYRANNY - Dimmu Borgir
----------------------------------------------------------------------------
Tabbed by:Derz
Email:phillip55@web.de

Tuning:Standard


Git1/Riff1:x2
e|-------------------------------------------------------------------------|
B|-------------------------------------------------------------------------|
G|----2222222-----3-----------2222222----3--------2222222------------------|
D|-4---------------5------4---------------5---4----------------------------|
A|---4---------4----5--------4----------4--5-----4----------------9--------|
E|--2---------2-------------2---------2---------2---------2-9-10-9---------|

Git2/Riff1:x4
e|-------------------------------------------------------------------------|
B|-------------------------------------------------------------------------|
G|-------------------------------------------------------------------------|
D|-4--4--4---5-4-2---------------------------------------------------------|
A|-------------------------------------------------------------------------|
E|---2h-2h-2h--------------------------------------------------------------|

Then you play Riff1 without guitar1 4 Times!


Git1 and Git2/Riff2:x2
e|-------------------------------------------------------------------------|
B|-------------------------------------------------------------------------|
G|------------------33-2---------------------------------------------------|
D|-------5-44-------55-4------5-44--7-8-5----------------------------------|
A|-444444-----444444----444444---------------------------------------------|
E|-222222-----222222----222222---------------------------------------------|

Git1 and Git2/Riff3:x7
e|-------------------------------------------------------------------------|
B|-------------------------------------------------------------------------|
G|-------------------------------------------------------------------------|
D|-------------------------------------------------------------------------|
A|-8-9-1112--12-11-9-8--8-9-1112-9-7-5-4-----------------------------------|
E|-6-7-9-10--10-9--7-6--6-7-9-10-------------------------------------------|

Riff2:x2
Riff1:x2
Then you play Riff1 without guitar1 4 Times!
Riff1:x2


Git1/Riff4 and Solo Rhytm:x8
e|-------------------------------------------------------------------------|
B|-------------------------------------------------------------------------|
G|-------------------------------------------------------------------------|
D|-7777777-3333333---------------------------------------------------------|
A|-5555555-1111111-4444444-5555555-----------------------------------------|
E|-----------------2222222-3333333-----------------------------------------|

Solo Riff:x2
e|-------------------------------------------------------------------------|
B|-------------------------------------------------------------------------|
G|-----11-------11-------15-------15-------11-------11---------------------|
D|---12--12---12--12---16--16---16--16---12--12---12--12-------------------|
A|-14-------14-------14-------14-------14-------14-------14-17-16----------|
E|-------------------------------------------------------------------------|




Brigde:x15
e|-------------------------------------------------------------------------|
B|-------------------------------------------------------------------------|
G|-------------------------------------------------------------------------|
D|-------------------------------------------------------------------------|
A|-------------------------------------------------------------------------|
E|-0000000-000-------------------------------------------------------------|
Do a  little pickslide on The E string after Bridge!

Solo riff:x2 Do it a little faster!
Riff3:x7
Then you play Riff1 without guitar1 4 Times!Do it a little faster!

Thats it!

| /  slide up
| \  slide down
| h  hammer-on
| p  pull-off
| ~  vibrato
| +  harmonic
| x  Mute note
============================================================================
Tap to rate this tab
# A B C D E F G H I J K L M N O P Q R S T U V W X Y Z