Song name
# A B C D E F G H I J K L M N O P Q R S T U V W X Y Z

Dimmu Borgir - Puritania tab

Help us improve GuitareTab! Take a short survey!
Puritania
by:Dimmu Borgir

tab by: Ben Healey

standard tuning EADGBE



   |-------------------------------------------|
   |-------------------------------------------|
   |-------------------------------------------|4x
   |-------------------------------------------|
   |--33333333---3--3---3--3----4--4--4--------|
   |--11111111---1--1---1--1----2--2--2--------|

  only drums

   |-------------------------------------------|
   |-------------------------------------------|
   |-------------------------------------------|4x
   |-------------------------------------------|
   |--33333333---3--3---3--3----4--4--4--------|
   |--11111111---1--1---1--1----2--2--2--------|

  only drums again

this time you will hear Mustis on Synthesizers
   |-------------------------------------------|
   |-------------------------------------------|
   |-------------------------------------------|4x
   |-------------------------------------------|
   |--33333333---3--3---3--3----4--4--4--------|
   |--11111111---1--1---1--1----2--2--2--------|


   |-------------------------------------------|
   |-------------------------------------------|
   |-------------------------------------------|5x
   |-------------------------------------------|
   |---4-4--4-4--4-4--4-4--3-3--3-3--4/3-3/1---|
   |---2-2--2-2--2-2--2-2--1-1--1-1--2/1-1p0---|


   |-------------------------------------------|
   |-------------------------------------------|
   |-------------------------------------------|4x
   |-------------------------------------------|
   |--33333333---3--3---3--3----4--4--4--------|
   |--11111111---1--1---1--1----2--2--2--------|

  drums only again

   |-------------------------------------------|
   |-------------------------------------------|
   |-------------------------------------------|2x
   |-------------------------------------------|
   |--33333333---3--3---3--3----4--4--4--------|
   |--11111111---1--1---1--1----2--2--2--------|

  once again drums only

  synthesizers here too.
   |-------------------------------------------|
   |-------------------------------------------|
   |-------------------------------------------|4x
   |-------------------------------------------|
   |--33333333---3--3---3--3----4--4--4--------|
   |--11111111---1--1---1--1----2--2--2--------|


   |-------------------------------------------|
   |-------------------------------------------|
   |-------------------------------------------|5x
   |-------------------------------------------|
   |---4-4--4-4--4-4--4-4--3-3--3-3--4/3-3/1---|
   |---2-2--2-2--2-2--2-2--1-1--1-1--2/1-1p0---|


   |-------------------------------------------|
   |-------------------------------------------|
   |-------------------------------------------|4x
   |-------------------------------------------|
   |--33333333---3--3---3--3----4--4--4--------|
   |--11111111---1--1---1--1----2--2--2--------|

the end
Related for Puritania tab