Song name
# A B C D E F G H I J K L M N O P Q R S T U V W X Y Z

Dimmu Borgir - Mourning Palace tab

Well this is my first song EVER tabbed so.. 
dont be suprised if its wrong..


. -Palm Mute
/ -Slide Up
\ -Slide Down
~ -Vibrato



 intro
|---------|
|---------|
|---------|
|-4-7-6-9-|
|-2-5-4-7-|
|---------|

 GTR 1&2 
|----------------------------------------|x6
|----------------------------------------|
|----------------------------------------|
|--4----4----4----2----2----4----4-7-6-9-|
|--4-44-4-44-4-44-2-44-2-44-4-44-2-5-4-7-|
|--2-22-2-22-2-22-4-22-4-22-2-22---------|

 GTR 1&2 
|-------------------------------|
|-------------------------------|
|-------------------------------|
|-------------------------------|
|-4------4------2/4------4------|
|-2-2222-2-2222-0/2-2222-2-2222-|
    ....   ....     ....   ....

|-------------------------------|
|-------------------------------|
|-------------------------------|
|-9------9----------------------|
|-7-7777-7-776-9------9---------|
|--------------7-7777-7-7777----|
    ....   ..    ....   ....

|-------------------------------|
|-------------------------------|
|-------------------------------|
|-------------------------------|
|-4------4------2/4------4------|
|-2-2222-2-2222-0/2-2222-2-2222-|
    ....   ....     ....   ....

|--------------------------------|
|--------------------------------|
|----------------------11~-------|
|-9------------------------------|
|-7-7777-9-7-6-9-----------------|
|--------------7-7777------------|
    ....         ....

and again...
|-------------------------------|
|-------------------------------|
|-------------------------------|
|-------------------------------|
|-4------4------2/4------4------|
|-2-2222-2-2222-0/2-2222-2-2222-|
    ....   ....     ....   ....

|-------------------------------|
|-------------------------------|
|-------------------------------|
|-9------9----------------------|
|-7-7777-7-776-9------9---------|
|--------------7-7777-7-7777----|
    ....   ..    ....   ....


|-------------------------------|
|-------------------------------|
|-------------------------------|
|-------------------------------|
|-4------4------2/4------4------|
|-2-2222-2-2222-0/2-2222-2-2222-|
    ....   ....     ....   ....

|-----------------------------------|
|-----------------------------------|
|----------------------11~----------|
|-9-------------------------4-7-6-9-|
|-7-7777-9-7-6-9------------2-5-4-7-|
|--------------7-7777---------------|
    ....         ....

GTR 1&2 
|----------------------------------------|x4 (its only four times now..)
|----------------------------------------|
|----------------------------------------|
|--4----4----4----2----2----4----4-7-6-9-|
|--4-44-4-44-4-44-2-44-2-44-4-44-2-5-4-7-|
|--2-22-2-22-2-22-4-22-4-22-2-22---------|


 GTR 1&2
|-------------------------------|
|-------------------------------|
|-------------------------------|
|-------------------------------|
|-4------4------2/4------4------|
|-2-2222-2-2222-0/2-2222-2-2222-|
    ....   ....     ....   ....

|-------------------------------|
|-------------------------------|
|-------------------------------|
|-9------9----------------------|
|-7-7777-7-776-9------9---------|
|--------------7-7777-7-7777----|
    ....   ..    ....   ....

|-------------------------------|
|-------------------------------|
|-------------------------------|
|-------------------------------|
|-4------4------2/4------4------|
|-2-2222-2-2222-0/2-2222-2-2222-|
    ....   ....     ....   ....

|--------------------------------|
|--------------------------------|
|----------------------11~-------|
|-9------------------------------|
|-7-7777-9-7-6-9-----------------|
|--------------7-7777------------|
    ....         ....

and again...
|-------------------------------|
|-------------------------------|
|-------------------------------|
|-------------------------------|
|-4------4------2/4------4------|
|-2-2222-2-2222-0/2-2222-2-2222-|
    ....   ....     ....   ....



|-------------------------------|
|-------------------------------|
|-------------------------------|
|-9------9----------------------|
|-7-7777-7-776-9------9---------|
|--------------7-7777-7-7777----|
    ....   ..    ....   ....


|-------------------------------|
|-------------------------------|
|-------------------------------|
|-------------------------------|
|-4------4------2/4------4------|
|-2-2222-2-2222-0/2-2222-2-2222-|
    ....   ....     ....   ....

|--------------------------|
|--------------------------|
|----------------------11~-|
|-9------------------------|
|-7-7777-9-7-6-9-----------|
|--------------7-7777------|
    ....         ....


|-------|
|-------|
|-9-----|
|-10----|
|-12----|
|-------|

|-----------------------|
|-----------------------|
|-----------------------|
|--10-9--12-10--5-4-5-4-|
|--12-12-12-12--7-7-7-7-|
|-----------------------|

Play that a few times then...

|------------------------------------------------|x5
|------------------------------------------------|
|------------------------------------------------|
|-----9-----8-----9-----8-----9-----8--555--7-8--|
|---7-----7-----7-----7-----7-----7----333--5-6--|
|-0-----0-----0-----0-----0-----0----------------|
  . .   . .   . .   . .   . .   . .

 Faster...
|----------------------------------------|x4
|----------------------------------------|
|----------------------------------------|
|-----9-----8-----9-----8-----9--55-7-8--|
|---7-----7-----7-----7-----7----33-5-6--|
|-0-----0-----0-----0-----0--------------|
  . .   . .   . .   . .   . .   

|----------------------|x4
|----------------------|
|----------------------|
|-5-4-5-4--10-9--12-10-|
|-7-7-7-7--12-12-12-12-|
|----------------------|

|---------------------------------|x8
|---------------------------------|
|---------------------------------| GTR I
|---4"--5"-4"-2-------------5"-4"-|
|-2"--2"----------5"-----2"-------|
|---------------3"--3"-0"---------|

|-------------------|
|-------------------|
|-------------------| GTR II
|-4--3-4------------|
|-2--1-2--5--2------|
|---------3--0------|

|----------------|x7
|----------------|
|----------------|GTR II
|-4--------------|
|-2-2"-5----2----|
|------3-3"-0-0"-|

|-------------------------------------------------------|x4
|-------------------------------------------------------|
|-------------------------4-----------------------------|
|---4---4-5-4-2---4---4-5-----4---4-5-4-2-----------5-4-|
|-2---2---------2---2-------2---2-----------5-----2-----|
|-----------------------------------------3---3-0-------|


|---------------------------------|x4
|---------------------------------|
|---------------------------------| 
|---4"--5"-4"-2-------------5"-4"-|
|-2"--2"----------5"-----2"-------|
|---------------3"--3"-0"---------|

|--------|
|--------|
|--------|
|-3-4\---|
|-1-2\---|
|--------|

I think that's it...
Tap to rate this tab
# A B C D E F G H I J K L M N O P Q R S T U V W X Y Z