Song name
# A B C D E F G H I J K L M N O P Q R S T U V W X Y Z

Dimmu Borgir - Spellbound By The Devil tab


BAND - DIMMU BORGIR
SONG - SPELLBOUND(BY THE DEVIL)
ALBUM - ENTHRONE DARKNESS TRIUMPHANT

TUNING - STANDERD (E,B,G,D,A,E,)


* = PALM MUTE
/ = SLIDE
~ = LET NOTE RING
h = HAMMER ON


     ok,i have posted this but i fixed some of the parts up because
     they were a bit off.this should be pretty spot on now.
                             


   INTRO 
E---------------X4]------------------------------------X4]
B-----------------]--------------------------------------]
G-----------------]--------------------------------------]
D--6~~------------]--6-------------6-----------7-6-4-6---]
A--4~~------------]--4-4444-6-4444-4-4444-6----5-4-2-4---]
E--4~~------------]---------4-------------4--------------]
          * * *        ****   ****   ****      * * *


  RIFF 2 (VERSE)                    RIFF 3
E--------------------------------]----------------------X6]
B--------------------------------]------------------------]
G--6--------------------------6--]------------------------]
D--6-------------------7-6-4--6--]-------5-4-------4-5----]
A--4-4444444444444444--5-4-2--4--]-------7-6-------6-7----]
E--------------------------------]--0-000------0-000------]
     ****************  * * *        * ***      * ***


E-------------------------X4]
B---------------------------]
G---------------------------]
D---------------------------]
A--------9-8--10----10------]
E--0000--7-6--8--88-8--11---]
   ****          **  

RIFF 3 X4

   
 RIFF 4 X2
E------X4]------------------X4]----------------------X4]
B--------]--------------------]------------------------]
G--------]--------------------]------------------------]
D--------]--------------------]------------------------]
A--2--3--]--222222-333333-----]--6------6~--7------7~--]
E--0--1--]--000000-111111-----]--4-4444-4~--5-5555-5~--]
                                   ****       ****

 gtr 2 (behind riff 4 2nd time)
E---------------------------]
B---------------------------]
G---------------------------]
D--6-7-9-6~--6h7h9~-6h7h9~--]
A---------------------------]
E---------------------------]

E---------------------X4]
B-----------------------]
G-----------------------]
D-----------------------]
A--6------6--7------7~--]
E--4-4444-4--5-5555-5~--]
     ****     ****


  RIFF 5
E------------------------X13]
B---------------------------]
G---------------------------]
D--6~~--2~~--5~~--8~~--7~~--]
A--6~~--2~~--5~~--6~~--5~~--]
E--4~~--0~~--3~~--6~~--5~~--]


   ------------------KEYBOARDS--------------


  RIFF 6 (OUTRO)

E------------------------------------------------------------]
B------------------------------------------------------------]
G------------------------------------------------------------]
D------------------------------------------------------------]
A--7-7777-7-7777-5-5555-5-5555--3-3333-3-3333-5-5555-5-5555--]
E--5-5555-5-5555-3-3333-3-3333--1-1111-1-1111-3-3333-3-3333--]


E------------------------------------------------------------]
B------------------------------------------------------------]
G------------------------------------------------------------]
D------------------------------------------------------------]
A--7-7777-7-7777-5-5555-5-5555--3-3333-3-3333-5-5555-6-6666--]
E--5-5555-5-5555-3-3333-3-3333--1-1111-1-1111-3-3333-4-4444--]







  GTR 2 (2 GTRS PLAYING THIS IN HARMONY ARR. FOR 1 GTR)

E-----------------------------------------------------------------------]
B----------------------------10-8----------------8-10~------------------]
G----9-7----7-9----9-7--------------------9-----9-------10-9-9~-7-------]
D--10---10~-----10~-----10~-------10~---10-10~-------------------10-10~-]
A-----------------------------------------------------------------------]
E-----------------------------------------------------------------------]
                 REPEAT THIS AND FADE OUT.



 ENJOY.PLZ RATE.i fixed it up because the last got rated fairly low so i
 fixed it up.now it should be spot on.

 TABBED BY - IMMORTAL_STONE
  



Tap to rate this tab
 
# A B C D E F G H I J K L M N O P Q R S T U V W X Y Z