Song name
# A B C D E F G H I J K L M N O P Q R S T U V W X Y Z

Dimmu Borgir - For All Tid tab

                             Dimmu Borgir
                            -FOR ALL TID-
                                 the intro solo is from gtr pro,and other suff is
from the other tabs,this tab kinda sounds like the song if u listen to the guitar 
to the other tabbers of this song.

Tuning:E,A,D,G,B,E
   8x then... intro solo
E|-------0---|----------0----|------|------0-0-1|1-0-0-1-0-1-0|
B|----0-1-1--|--0-1-0--1-1-0-|------|-0-1-3-----|---3---------|
G|---2-----2-|-2------------2|-0-2-2|-----------|-------------|
D|--2--------|---------------|------|-----------|-------------|
A|-0---------|---------------|------|-----------|-------------|
E|-- --------|---------------|------|-----------|-------------|

E|-3-1-0-1-0--------|----------0-----|----|-------|-0-1-0---3-1--0-1-0-1--|
B|3----------1-0-1--|--0-1-0--1--1-0-|----|-------|--------3--------------|
G|-----------------2|---------------2|----|----0-2|-----------------------|
D|------------------|----------------|-3-2|-2-3-3-|-----------------------|
A|------------------|----------------|----|-------|-----------------------|
E|------------------|----------------|----|-------|-----------------------|

E|--3-1-0-1-0--------|-riff-1--4x-----|riff-2--4x---|
B|-3----------1-0-1--|----------------|-------------|
G|------------------2|----------------|-------------|
D|-------------------|777777----------|777777-------|
A|---solo-end--------|555555-777------|555555-------|
E|-------------------|-------555-6-5-6|-------6--6-5|

E|--riff-3--4x---|----riff-4--8x------|
B|---------------|--------------------|
G|---------------|----555-------------|
D|-----------5--5|----333-777--10/9\10|
A|-22222-555-3--3|-777----555---8/7\8-|
E|-00000-333-----|-555----------------|  *=pause!!!!

E|-----------------------------------------------------------------------|
B|-riff-5---3x---------tiny-pause-after-2nd-7----------------------------|
G|-----------------------------------------------------------------------|
D|-777101010999101010-000-000-000*777101010999101010-141414-12-10-9------|
A|-000-0-0-0000-0-0-0-888-777-888*000-0-0-0000-0-0-0-0-0-0--0--0--0------|
E|-----------------------------------------------------------------------|

E|-riff-6--3x-----------------|-riff-7--1x-then.....-|
B|----------------------------|----------------------|
G|----------------------------|----------------------|
D|-777-101010-999-121212121212|-777-101010-999-333333|
A|-555-8-8-8--777-101010101010|-555-8-8-8--777-111111|
E|----------------------------|----------------------|

keboard/bell prt. arranged for guitar.
E|---0--0--0--0-|--------------|up to this point i can barely
B|--1--1--1--1--|---0--0--0--0-|hear the guitar,keyboard is too
G|-2--2--2--2---|--0--0--0--0--|loud,so,this is what i might
D|--------------|-2--2--2--2---|think it is>>>>>>>>
A|--------------|--------------|
E|--------------|--------------|

>>>>E|when-bells-stop-|well thats it basically
    B|----------------|the rest of the riffs are
    G|----------------|already here on top,
    D|-777-1010-999999|good-bye
    A|-555-8-8--777777|
    E|----------------|
Tap to rate this tab
 
# A B C D E F G H I J K L M N O P Q R S T U V W X Y Z