Song name
# A B C D E F G H I J K L M N O P Q R S T U V W X Y Z

Dimmu Borgir - Entrance tab

----------------------------------------------------------------------------
			     Entrance - Dimmu Borgir
----------------------------------------------------------------------------Tabbed by:Derz
Email:phillip55@web.de

So the solo is nearly correct but some parts are wrong.
i think you need a special effect for it!

Tuning:EADGBe

Riff1:x1
e|-------------------------------------------------------------------------|
B|-------------------------------------------------------------------------|
G|-------------------------------------------------------------------------|
D|-----7----------7--------------------------------------------------------|
A|-777-5-33----77-5-3------------------------------------------------------|
E|-555---11-x3-55---1-x8---------------------------------------------------|

Guit-Riff2:x8
e|-------------------------------------------------------------------------|
B|-------------------------------------------------------------------------|
G|-------------------------------------------------------------------------|
D|-------------------------------------------------------------------------|
A|-10-10-14-14-------------------------------------------------------------|
E|-8--8--12-12-------------------------------------------------------------|

Guit2-Riff2:x8
e|-------------------------------------------------------------------------|
B|-------------------------------------------------------------------------|
G|-------------------------------------------------------------------------|
D|-------------------------------------------------------------------------|
A|-33-777------------------------------------------------------------------|
E|-------------------------------------------------------------------------|

Riff1:only the part you have to play 8 times!

Riff3:x1
e|-------------------------------------------------------------------------|
B|-------------------------------------------------------------------------|
G|-------------------------------------------------------------------------|
D|-9-----------------------------------------------------------------------|
A|-7-10-14-12----77777777--------------------------------------------------|
E|---8--12-10-x1---------88888888-12121212121212-101010101010101010101010x4|

guitar 2 has to do a pickslide on the e string after this riff!
 

Riff4:x4
e|-------------------------------------------------------------------------|
B|-------------------------------------------------------------------------|
G|-------------------------------------------------------------------------|
D|-9-----------------------------------------------------------------------|
A|-7-10-14-12-14-15-17-----------------------------------------------------|
E|---8--12-10-12-13-15-----------------------------------------------------|

Solo rhytm:play during and after the solo!

e|-------------------------------------------------------------------------|
B|-------------------------------------------------------------------------|
G|-------------------------------------------------------------------------|
D|-------------------------------------------------------------------------|
A|-77777777----------------------------------------------------------------|
E|---------88888888-12121212121212-1010101010101010101010101---------------|

Solo:in the solo are such effects! so i havent tabbeb all!he only plays it live!

e|--------------12---------------------------------------------------------|
B|-12-------------12-10-8-10--8-10-12---------------------8----------------|
G|---12-10-9-10----------------------12-10-9-10--9-12-10-9-10-9-5----------|
D|-------------------------------------------------------------------------|
A|-------------------------------------------------------------------------|
E|-------------------------------------------------------------------------|
So the last part of the solo i dont have!

Riff4:x4
Riff1:x1

Thats it!
Tap to rate this tab
# A B C D E F G H I J K L M N O P Q R S T U V W X Y Z