Guitaretab - guitar tabs
Song name
# A B C D E F G H I J K L M N O P Q R S T U V W X Y Z

Dimmu Borgir - Prudences Fall tab

---------------------------------------------------------------------------
			     Prudences Fall- Dimmu Borgir
---------------------------------------------------------------------------
Tabbed by:Derz
Email:phillip55@web.de

Tuning:Standard

Riff1:x8
e|------------------------------------------------------------------------|
B|------------------------------------------------------------------------|
G|------------------------------------------------------------------------|
D|------------------------------------------------------------------------|
A|------------------------------------------------------------------------|
E|-88888888-1010101010101010----------------------------------------------|

Riff2:x1
e|------------------------------------------------------------------------|
B|------------------------------------------------------------------------|
G|------------------------------------------------------------------------|
D|------------------------------------------------------------------------|
A|-1010-12-12-----10101010-12-12-12-12------------------------------------|
E|-8-8-10-10-x4--8-8-8-8--10-10-10-10-x8---------------------------------|

Keyboard................

Riff3:This is wrong but i gave my best!i made 2 versions you have to look which you find better. x8

e|------------------------------------------------------------------------|
B|------------------------------------------------------------------------|
G|------------------------------------------------------------------------|
D|-7777------5555---------10101010----------------------------------------|
A|-5555-3333-3333-5555----8-8-8-8--12-12-12-12-10101010-12-12-12-12-------|
E|------1111------3333--or---------10-10-10-10-8-8-8-8--10-10-10-10-------|

Riff4:x8
e|------------------------------------------------------------------------|
B|------------------------------------------------------------------------|
G|------------------------------------------------------------------------|
D|------------------------------------------------------------------------|
A|-12121212--10101010--8-7-8----------------------------------------------|
E|-10101010-8-8-8-8------------------------------------------------------|
[ Tab from: http://www.guitaretab.com/d/dimmu-borgir/37810.html ]
Riff5:x8
e|------------------------------------------------------------------------|
B|------------------------------------------------------------------------|
G|------------------------------------------------------------------------|
D|------------------------------------------------------------------------|
A|-10101010-12121212------------------------------------------------------|
E|-8-8-8-8--10101010------------------------------------------------------|


Guit1-Riff6:x9
e|------------------------------------------------------------------------|
B|----------555-666-555---------------------------------------------------|
G|-222-555-------------222-4-5-7-5-4-5-4----------------------------------|
D|------------------------------------------------------------------------|
A|------------------------------------------------------------------------|
E|------------------------------------------------------------------------|

Guit2-Riff6:x9
e|------------------------------------------------------------------------|
B|------------------------------------------------------------------------|
G|------------------------------------------------------------------------|
D|------------------------------------------------------------------------|
A|-7--10-7----------------------------------------------------------------|
E|-5--8--5----------------------------------------------------------------|

Riff7:x10
e|------------------------------------------------------------------------|
B|------------------------------------------------------------------------|
G|------------------------------------------------------------------------|
D|------------------------------------------------------------------------|
A|-10-12--14--------------------------------------------------------------|
E|-8--10--12--------------------------------------------------------------|

Little solo:
e|-----------------------------------------------------------------------------------|
B|-----------------------------------------------------------------------------------|
G|-----------------------------------------------------------------------------------|
D|-----------------------------------------------------------------------------------|
A|-7--------12-14-15-14-12-8-15-10--12-14-15-14-12-7---------------------------------|
E|--7-7-8-7-----------------------------------------7787-----------------------------|

e|------------------------------------------------------------------------|
B|------------------------------------------------------------------------|
G|------------------------------------------------------------------------|
D|------------------------------------------------------------------------|
A|-12-14-15-14-12-8-15-10--10-12-10-7-12-14-15----------------------------|
E|------------------------------------------------------------------------|

Play the same two frets down after!

END!
Related for Prudences Fall tab