Song name
# A B C D E F G H I J K L M N O P Q R S T U V W X Y Z

Dimmu Borgir - The Maelstrom Mephisto tab

So Another Song from Puritnical Euphoric Misanthropis... 
The Maelstrom Mephisto, fairly easy to play

Tuning - EADGBe

You already know the signs so

Have fun

Riff A both Guitars
|--------------------|-----------------------------------|
|--------------------|-----------------------------------|
|--------------------|-----------------------------------|
|--------------------|-----------------------------------|
|--0"--2--0"--2"\8"--|--0"---5"-3"-5"-2"---3h5p3--5\8"---|
|--------------------|-----------------------------------|

Riff A.2 Galder {Silenoz plays one string down}
|--------------------------------------------------------------------------------|
|--------------------------------------------------------------------------------|
|-4---------6-------------------6-----------------6------------------------------|
|-4---------6---------7---------6--5\4--7---------4------------------------------|
|-2-0-0-0-0-4-0-0-0-0-5-0-0-0-0-4--3\2--5-0-0-0-0-2-0-0--------------------------|
|--------------------------------------------------------3"-5"-3h5p3h5-1h3p1h3p1-|
    . . . .   . . . .   . . . .           . . . .  . .

|------------------------------------------------------------------------------|
|------------------------------------------------------------4h6p4h6p4h6-------|
|-4---------6-------------------6----------------4--------6"-------------------|
|-4---------6---------7---------6-5\4--7---------4-----4"----------------------|
|-2-0-0-0-0-4-0-0-0-0-5-0-0-0-0-4-3\2--5-0-0-0-0-2-0-0-------------------------|
|------------------------------------------------------------------------------|
    . . . .   . . . .   . . . .          . . . .   . .

Then Riff A
Then Riff A.2 yada yada yada

Riff B
|----------------------------------------|--------------------------------------|
|----------------------------------------|--------------------------------------|
|-----3--2---------4/8-8-8---------------|-----3--2---------8\6-6-6-------------|
|--4--3--2---------4/6-6-8---------------|--4--3--2---------8\6-6-4-------------|
|--4--1--0-2-2-2-2-2/6-6-6--0-0--0-0-0-0-|--4--1--0-2-2-2-2-6\4-4-4--0-0--0-0-0-|
|--2-------------------------------------|--2-----------------------------------|
           . . . .          . .  . . . .            . . . .          . .  . . .

Riff B.2
|--------|
|--------|
|-----3--|
|--4--3--|
|--4--1--|
|--2-----|

Riff C 							    last time
|-------------------------------------------------------|-------------|
|-------------------------------------------------------|-------------|
|--6-----------8h11p8---8h10p8---------8h11p8-----6--4--|-------------|
|--6-------------------------------------------9--6--4--|-3-3-3-2-2-2-|
|--4--0-0-0-0---------0--------0-0-0-0---------9--4--2--|-1-1-1-0-0-0-|
|----------------------------------------------7--------|-------------|
      . . . .         .        . . . .

Then Repeat Riff B

Riff C
|----------------|
|----------------|
|----------------|
|--7----6x-------|
|--7----6x-------|
|--5----4x-------|

Riff C.2
|---------------------|
|---------------------|
|---------------------|
|--7------------------|
|--7-----9-9---9-9--9-|
|--5-----9-9---9-9--9-|

Riff C.3
|-----------|---------------|
|-----------|---------------|
|-----------|---------------|
|--7-----6x-|--7-----9---10-|
|--7-----6x-|--7-----9---10-|
|--5-----4x-|--5-----7---8--|


Riff D
|-------------------------------|
|-------------------------------|
|-------------------------------|
|--7------6------7----9------10-|
|--7------6------7----9------10-|
|--5------4------5----7------8--|

Riff D.2
|-----------------------------------------------------------------------------|
|-----------------------------------------------------------------------------|
|-----------------------------------------------------------------------------|
|--7----6-------------------------------------6--------------------------6/5--|
|--7----6----6--------6--------6--------6/5---6--------6--------6--------6/5--|
|--5----4----4--4-4-4-4--4-4-4-4--4-4-4-4/3---4--4-4-4-4--4-4-4-4--4-4-4-4/3--|
                . . .    . . .    . . .          . . .    . . .    . . .

On last time go to this fill
|---------|
|---------|
|---------|
|-----6"--|
|-7"--4"--|
|-5"------|

Riff E
|----------------------------------------------------------------------------------|
|----------------------------------------------------------------------------------|
|----------------------------------------------------------------------------------|
|--6--------------------------6/5---6--------------------------6/5-------------6"--|
|--6--------6--------6--------6/5---6--------6--------6--------6/5--7"---------4"--|
|--4--4-4-4-4--4-4-4-4--4-4-4-4/3---4--4-4-4-4--4-4-4-4--4-4-4-4/3--5"-------------|

Then it Leads into A.2
After into Riff C{ist time only Galder}
And the Ending is


|----------------|
|----------------|
|-----3------9\--|
|--4--3-4----9\--|
|--4--1-4----7\--|
|--2----2--------|
Tap to rate this tab
 
# A B C D E F G H I J K L M N O P Q R S T U V W X Y Z