Song name
# A B C D E F G H I J K L M N O P Q R S T U V W X Y Z

Dimmu Borgir - Det Nye Riket tab

hey this is my first tab
i noticed nun of this song tabs isnt true
so u decited to give you
the part i know..

first there is that part of the piano

and this is the main part :


e-------1--------1-------5-------0-------1--------1-----1-----0------|
B--------------------------------------------------------------------|
G----2-------2-------2--------2------2---------2-----2----2----------|
D--0------0-------0--------0-------0---------------------------------|
A--------------------------------------------1----1----1------0------|
E--------------------------------------------------------------------|


e----------0---------------|
B-----2--3-----------------|
G---2----------------------|
D--------------------------|
A----------4---------------|
E--------------------------|

that is as far as i know..
any way if you have any questions
208825922

:)

Tap to rate this tab
 
# A B C D E F G H I J K L M N O P Q R S T U V W X Y Z