Song name
# A B C D E F G H I J K L M N O P Q R S T U V W X Y Z

Dimmu Borgir - Over Bleknede Blaner Til Dommedag tab

-------------------------------------------------------------------------------
             	 Over Bleknede Blaner Til Dommedag - Dimmu Borgir
				For All Tid [1994]
-------------------------------------------------------------------------------
Tabbed by: UNKNOWNer
Email: andrej_paulus@net.hr

Tuning: Standard tuning

Key: 
. - Fast picking

Riff 1:
e|---------------------------------------------------------------------------|
B|---------------------------------------------------------------------------|
G|---------------------------------------------------------------------------|
D|----7.--6.--2.-------------------------------------------------------------|
A|----5.--4.--0.--2.---------------------------------------------------------|
E|----------------0.---------------------------------------------------------|

Riff 2:
e|---------------------------------------------------------------------------|
B|---------------------------------------------------------------------------|
G|-------------------------9-9--999--66--------------------------------------|
D|----4-4--444---9-9--999--7-7--777--44--6-7---------------------------------|
A|----2-2--222---7-7--777----------------4-5---------------------------------|
E|---------------------------------------------------------------------------|

Riff 3:
e|---------------------------------------------------------------------------|
B|---------------------------------------------------------------------------|
G|---------------------------------------------------------------------------|
D|---------------------------------------------------------------------------|
A|-------10.--8.-------------------------10.--8.--10.-8.---------------------|
E|----5.---------8.--4.--5.--7.-5.---5.------------------8.--4.--5.--7.-5.---|

Riff 4:
e|---------------------------------------------------------------------------|
B|---------------------------------------------------------------------------|
G|---------------------------------------------------------------------------|
D|---------------------------------------------------------------------------|
A|-------12.-11.--8.--7.-----------------------------------------------------|
E|----5.---------------------------------------------------------------------|

Riff 5:
e|---------------------------------------------------------------------------|
B|---------------------------------------------------------------------------|
G|---------------------------------------------------------------------------|
D|---------------------------------------------------------------------------|
A|-------12.-11.--8.-10.-8.--------------------------------------------------|
E|----5.---------------------------------------------------------------------|

Riff 6:
e|---------------------------------------------------------------------------|
B|---------------------------------------------------------------------------|
G|---------------------------------------------------------------------------|
D|----9.--7--9.--------------12----------------------------------------------|
A|----7.--5--7.---7.---10.---10-12-------------------------------------------|
E|----------------5.---8.-------10-------------------------------------------|

Song structure:
Riff 1,
Riff 2,
Riff 3,
Riff 4,
Riff 5,
Riff 4,
Piano Interlude,
Riff 1,
Riff 6.
============================================================================
Tap to rate this tab
 
# A B C D E F G H I J K L M N O P Q R S T U V W X Y Z