Song name
# A B C D E F G H I J K L M N O P Q R S T U V W X Y Z

Dimmu Borgir - Inn I Evighetens Morke Part 1 tab

RIFF 1(under piano)
 arpeggio Cm    arpeggio Bm   arpeggio Ab   arpeggio G
|-------------|-------------|-------------|-------------|
|-------4-----|-------3-----|-------------|-------------|
|-----5---5---|-----4---4---|-------5-----|-------4-----|
|---5-------5-|---4-------4-|-----6---6---|-----5---5---|
|-3-----------|-2-----------|---6-------6-|---5-------5-|
|-------------|-------------|-4-----------|-3-----------|
 \____2x_____/ \____2x_____/ \____2x_____/ \____2x_____/
 \___________2x____________/ \___________2x____________/

RIFF 2 Listen to the CD
|----------I----------|----------I----------|
|----------I----------|----------I----------|
|----------I----------|-----0----I-----0----|
|-----0----I-----0----|---7---7--I---7---7--|
|---7---7--I---7---7--|-5--------I-6--------|
|-5--------I-6--------|----------I----------|
 \___4x___/ \___4x___/ \___4x___/ \___4x___/
 \________2x_________/ \________2x_________/

RIFF 3(time 3:46)
|--------|--------|
|--------|--------|
|--------|-----0--|
|----[0]-|---5----|
|--[4]---|-3------|
|[2]-----|--------|
 \__6x__/ \__6x__/

RIFF 5
|-----------------------------------|
|-----------------------------------|
|-----0-------0---------------------|
|---7--xN---6--xN----[0]xN----[0]xN-|
|-9-------8--------[7]------[6]-----|
|----------------[9]------[8]-------|
Tap to rate this tab
# A B C D E F G H I J K L M N O P Q R S T U V W X Y Z