Song name
# A B C D E F G H I J K L M N O P Q R S T U V W X Y Z

Dimmu Borgir - Inn I Evighetens Morke Part 2 tab

Help us improve GuitareTab! Take a short survey!
Riff 1:
e|-------------------------------------------------|
B|-------------------------------------------------|
G|-------------55555544---------------5555--4--4-4-|Guitar 1 
D|-2222--5555--33333333---2222--5555--3333--2--2-2-|
A|-0000--3333-------------0000--3333---------------|
E|-------------------------------------------------|
 |                                                 |
e|-------------------------------------------------|
B|-------------------------------------------------|
G|-------------------------------------------------|
D|------------------------------------------2--2-2-|Guitar 2 
A|------------------------------------------2--2-2-|
E|------------------------------------------0--0-0-|

Another 2 times with riff 1 but not the second guitar. Then this starts:

Riff 2:

e|----------------------------------|
B|----------------------------------|
G|----------------------------------|
D|-66666666-7777-6666-55555555-4444-|
A|-44444444-5555-4444-33333333-2222-|
E|----------------------------------|

Play 4 times.
And play riff 1 twice.

Riff 3:
e|------------------------------------------------------------|
B|------------------------------------------------------------|
G|------------------------------------------------------------|
D|-7777-9999-10101010-9999-7777-5555-22222222-1010101010101010|
A|-5555-7777-8-8-8-8--7777-5555-3333-00000000-8-8-8-8-8-8-8-8-|
E|------------------------------------------------------------|

Riff 4:                          end of song
e|------------------------------|-----------|
B|------------------------------|-----------|
G|------------------------------|-----------|
D|------10101010-9999-7777------|-5555-6666-|
A|-6666-8-8-8-8--7777-5555-7777-|-3333-4444-|
E|-4444--------------------5555-|-----------|
Related for Inn I Evighetens Morke Part 2 tab