Song name
# A B C D E F G H I J K L M N O P Q R S T U V W X Y Z

Dimmu Borgir - Nar Sjelen Hentes Til Helvete tab

-------------------------------------------------------------------------------
			     Nar Sjelen Hentes til Helvete - Dimmu Borgir
						Stormblast [1996]
-------------------------------------------------------------------------------
Tabbed by: UNKNOWNer
Email: andrej_paulus@net.hr

Tuning: Standard

Riff 1:
e|---------------------------------------------------------------------------|
B|---------------------------------------------------------------------------|
G|-----5--2--7-8-------------------------------------------------------------|
D|--2--5--2--7-8-------------------------------------------------------------|
A|--2--3--0--5-6-------------------------------------------------------------|
E|--0------------------------------------------------------------------------|

Riff 2:
e|---------------------------------------------------------------------------|
B|---------------------------------------------------------------------------|
G|---------------------------------------------------------------------------|
D|--5.-4.-2.-2.-4.-5.-----------5.-4.-2.-2.-4.-5.--7.-10.-9.-7.-9.-7.--------|
A|--------------------5.-4.-2.-----------------------------------------------|
E|---------------------------------------------------------------------------|

Riff 3:
e|---------------------------------------------------------------------------|
B|---------------------------------------------------------------------------|
G|---------------------------------------------------------------------------|
D|------8.-9.--5.-2.-4.5.-44445444-------------------------------------------|
A|--5.--6.-7.--3.-0.-2.3.-22222222-------------------------------------------|
E|--3.-----------------------------------------------------------------------|

Riff 4:
e|---------------------------------------------------------------------------|
B|---------------------------------------------------------------------------|
G|---------------------------------------------------------------------------|
D|-----10.---------------10.-------------------------------------------------|
A|--7.-----8.-7.-8.--7.------6.----------------------------------------------|
E|------------------------------5.-6.----------------------------------------|

Riff 5:
e|---------------------------------------------------------------------------|
B|---------------------------------------------------------------------------|
G|---------------------------------------------------------------------------|
D|--7.--8.---2.-3.-----------------------------------------------------------|
A|--5.--6.---0.-1.-----------------------------------------------------------|
E|---------------------------------------------------------------------------|

Riff 6:
e|---------------------------------------------------------------------------|
B|---------------------------------------------------------------------------|
G|---------------------------------------------------------------------------|
D|---------------------------------------------------------------------------|
A|--7.--8.---2.--3.----------------------------------------------------------|
E|--5.--6.---0.--1.----------------------------------------------------------|


Song Structure:
Riff 1,
Riff 2,
Riff 3,
Riff 2,
Riff 3,
Piano Interlude
Riff 4,
Riff 5,
Riff 6,
Riff 5,
Riff 3.
Tap to rate this tab
 
# A B C D E F G H I J K L M N O P Q R S T U V W X Y Z