Song name
# A B C D E F G H I J K L M N O P Q R S T U V W X Y Z

Dimmu Borgir - Grotesquery Conceiled tab

Fill 1:
|-----------------------------|
|-----------------------------|
|-----------------------------|
|-----------------------------|
|--3------7-6---3-3-3-3--7-6--|
|--1------5-4---1-1-1-1--5-4--|
   m            m m m m


Riff 1:
|---------------------------------|
|---------------------------------|
|---------------------------------|
|---------------------------------|
|--3-3333-3-3333-3-3333-3-3--7-6--|
|--1-1111-1-1111-1-1111-1-1--5-4--|
     ....   ....   ....   .


Riff 2:
|--------|
|--------|
|--------|
|-----5--|
|--3--3--|
|--1-----|
   l  l


Riff 3:
|---------------------------------------
|---------------------------------------
|---------------------------------------
|---------------------------------------
|--5555555555555555-888888888888888-----
|---------------------------------------

 -----------------------------------------|
 -----------------------------------------|
 -----------------------------------------|
 --6666666666666666-44444444--------------|
 ----------------------------66666-44444--|
 -----------------------------------------|

Riff 4:
|----------------------|
|----------------------|
|----------------------|
|--7--10-13--10--8--6--|
|--5--8--11--9---6--4--|
|----------------------|
   l  l  l


Riff 5:
|----------------------------|
|----------------------------|
|----------------------------|
|--5-----9--13--7-----7--10--|
|--3--6--7--11--5--8--5--8---|
|-----4------------6---------|
   l  l  l  l   l  l  l  l

Keyboard section...

Fill 2:
|---------|
|---------|
|---------|
|--10-----|
|--8---9--|
|------7--|
   l   m

Riff 6:
|--------------------------------------------------------------------|
|--------------------------------------------------------------------|
|--------------------------------------------------------------------|
|-101010101010101010101010101010101010101010-------------------------|
|-8-8-8-8-8-8-8-8-8-8-8-8-8-8-8-8-8-8-8-8-8--9999999999999999999999--|
|--------------------------------------------7777777777777777777777--|


Song structure:

Fill 1:         (1x)
Riff 1:         (4x)
Riff 2:         (4x)
Riff 1:         (4x)
Riff 3:         (2x)
Riff 4:         (4x)
Riff 5:         (4x)
Fill 2:         (1x)
Riff 6:         (4x)
Riff 2:         (4x)
Riff 1:         (4x)
Tap to rate this tab
# A B C D E F G H I J K L M N O P Q R S T U V W X Y Z