Song name
# A B C D E F G H I J K L M N O P Q R S T U V W X Y Z

Dimmu Borgir - Nocturnal Fear tab

Starts with feedback
Riff1 (0:00)
E---------------|
B---------------|
G---------------|
D---------------|
A--5h4-5h4-5----|
E------------6--|



Riff2 (0:07)
E-----------------------------------|
B-----------------------------------|
G--8-8-8-8-8-8-8-8-8-8-8-8-6-6-6-6--|
D--8-8-8-8-8-8-8-8-8-8-8-8-6-6-6-6--|
A--6-6-6-6-6-6-6-6-6-6-6-6-4-4-4-4--|
E-----------------------------------|

Riff3 (0:17)
E-------------------|
B-------------------|
G-------------------|
D--6-6-6-6-7-7-7-7--|
A--6-6-6-6-7-7-7-7--|
E--4-4-4-4-5-5-5-5--|


Riff4 (0:22)
E-------------------|
B-------------------|
G-------------------|
D--3-3-3-3-4-4-4-4--|
A--3-3-3-3-4-4-4-4--|
E--1-1-1-1-2-2-2-2--|

Riff5 (0:57)
E-------------------------------|
B-------------------------------|
G------------------------7-6-7--|
D------------------------7-6-7--|
A------------------------5-4-5--|
E--0-0-3-0-0-3-0-0-3-0-0--------|

Riff6 (1:08)
E-----------------------------------|
B-----------------------------------|
G------------------4-4-4-4-4-4-4-4--|
D------------------4-4-4-4-4-4-4-4--|
A------------------2-2-2-2-2-2-2-2--|
E--0-0-0-0-0-0-0-0------------------|

Riff7 (1:28)
E-------------------------------------|
B-------------------------------------|
G------------------4-4-4-5-5-5-6-6-6--|
D------------------4-4-4-5-5-5-6-6-6--|
A------------------2-2-2-3-3-3-4-4-4--|
E--0h2-2-2-2-2-2-2--------------------|

Ending (3:12)
E--------------------|
B--------------------|
G--------------------|
D--5--------2--------|
A--5--------2--------|
E--3--------0--------|


Order of Riffs
Riff1 x4
Riff2 x4
Riff3 x4
Riff4 x4
Riff1 x4
Riff2 x4
Riff3 x4
Riff4 x4
Riff1 x4
Riff5 x4
Riff6 x4
Riff5 x4
Riff7 x4
Riff5 x4
Riff1 x4
Riff2 x4
Riff3 x4
Riff4 x4
Riff5 x4
Riff1 x4
Riff2 x4
Riff3 x4
Riff4 x4
Riff5 x4
Ending x1

That's it!
Tap to rate this tab
# A B C D E F G H I J K L M N O P Q R S T U V W X Y Z