Guitaretab - guitar tabs
Song name
# A B C D E F G H I J K L M N O P Q R S T U V W X Y Z

Dimmu Borgir - Allehelgens Dod I Helveds Rike tab

============================================================================
Dimmu Borgir-"Allehelgens Dod i Helveds Rike" (intro) 
============================================================================
[track 7 of Death Cult Armageddon]
============================================================================
Tabbed by:Mike(silenzo666)
Email:gildednymphetamine@yahoo.com
Site:http://x220.biz.ly/
Tuning:Drop-C (CGCFAD)

============================================================================
| S means Sustain Note
| B means Bend Note
| ~ means Vibrato Note
============================================================================
[ Tab from: http://www.guitaretab.com/d/dimmu-borgir/58266.html ]
D|------------------------------------------------------|
A|------------------------------------------------------|
F|------------------------------------------------------|
C|------------------------------------------------------|
G|-------4-4-4-------5-5-5-------9-9-9-8-8-8-7-7-7-8-8-8|
C|-3-3-3-------3-3-3-------3-3-3------------------------|

|-------------------------------------------------------|
|-------------------------------------------------------|
|-------------------------------------------------------|
|----------------------------------9s-9s---9s-9s--------|
|-------4-4-4-------5-5-5--------9s-----9s--------------|
|-3-3-3-------3-3-3--------3-3-3------------------------|

(repeat those two lines and then the last six notes should repeat)

============================================================================
Related for Allehelgens Dod I Helveds Rike tab
Advertisement will be closed in 10 seconds