Song name
# A B C D E F G H I J K L M N O P Q R S T U V W X Y Z

Dimmu Borgir - Sorgens Kammer tab

Help us improve GuitareTab! Take a short survey!
Sorgens Kammer - Del II
Dimmu Borgir

Tuning: Drop C# (C# Ab C# F# Bb Eb)

4/4

Intro

Guitar I - Clean
|EEEH..  |EEEQ. Q |EEEH..  |EEEQ. Q |
|--------|--------|--------|--------|
|--------|--------|--------|---3----|
|--------|--------|--------|------2-|
|--03----|--03----|--03----|--0-----|
|-0------|-0------|-0------|-0------|
|0-------|1-----1-|0-------|1-------|
|
|
|Wr      |+Wr     |+Wr     |+Wr     |
|--------|--------|--------|--------|
|--------|--------|--------|--------|
|--------|--------|--------|--------|
|--------|--------|--------|--------|
|--------|--------|--------|--------|
|--------|--------|--------|--------|


|EEEH..  |EEEQ. Q |EEEH..  |EEEQ. Q |
|--------|--------|--------|--------|
|--------|--------|--------|---3----|
|--------|--------|--------|------2-|
|--03----|--03----|--03----|--0-----|
|-0------|-0------|-0------|-0------|
|0-------|1-----1-|0-------|1-------|
|
|Guitar II - Distorted
|W       |+W      |+W      |+W      |
|--------|--------|--------|--------|
|--------|--------|--------|--------|
|--------|--------|--------|--------|
|0-------|(0)-----|(0)-----|(0)-----|
|0-------|(0)-----|(0)-----|(0)-----|
|0-------|(0)-----|(0)-----|(0)-----|


|EEEH..  |EEEQ. Q |EEEH..  |EEEQ. Q |
|--------|--------|--------|--------|
|--------|--------|--------|---3----|
|--------|--------|--------|------2-|
|--03----|--03----|--03----|--0-----|
|-0------|-0------|-0------|-0------|
|0-------|1-----1-|0-------|1-------|
|
|W       |W       |W       |W       |
|--------|--------|--------|--------|
|--------|--------|--------|--------|
|--------|--------|--------|--------|
|0-------|0-------|0-------|0-------|
|0-------|0-------|0-------|0-------|
|0-------|0-------|0-------|0-------|


|EEEH..  |EEEQ. Q |EEEH..  |EEEQ. Q |
|--------|--------|--------|--------|
|--------|--------|--------|---3----|
|--------|--------|--------|------2-|
|--03----|--03----|--03----|--0-----|
|-0------|-0------|-0------|-0------|
|0-------|1-----1-|0-------|1-------|
|
|W       |W       |W       |W       |
|--------|--------|--------|--------|
|--------|--------|--------|--------|
|--------|--------|--------|--------|
|0-------|0-------|0-------|0-------|
|0-------|0-------|0-------|0-------|
|0-------|0-------|0-------|0-------|


|EEEH..  |EEEQ. Q |EEEH..  |EEEQ. Q |
|--------|--------|--------|--------|
|--------|--------|--------|---3----|
|--------|--------|--------|------2-|
|--03----|--03----|--03----|--0-----|
|-0------|-0------|-0------|-0------|
|0-------|1-----1-|0-------|1-------|
|
|W       |+W      |+W      |+W      |
|--------|--------|--------|--------|
|--------|--------|--------|--------|
|--------|--------|--------|--------|
|0-------|(0)-----|(0)-----|(0)-----|
|0-------|(0)-----|(0)-----|(0)-----|
|0-------|(0)-----|(0)-----|(0)-----|


|EEEH..  |EEEQ. Q |EEEH..  |EEEQ. Q |
|--------|--------|--------|--------|
|--------|--------|--------|---3----|
|--------|--------|--------|------2-|
|--03----|--03----|--03----|--0-----|
|-0------|-0------|-0------|-0------|
|0-------|1-----1-|0-------|1-------|
|
|W       |+W      |+W      |+W      |
|--------|--------|--------|--------|
|--------|--------|--------|--------|
|--------|--------|--------|--------|
|0-------|(0)-----|(0)-----|(0)-----|
|0-------|(0)-----|(0)-----|(0)-----|
|0-------|(0)-----|(0)-----|(0)-----|


|EEEH..  |EEEQ. Q |EEEH..  |EEEQ. Q |
|--------|--------|--------|--------|
|--------|--------|--------|---3----|
|--------|--------|--------|------2-|
|--03----|--03----|--03----|--0-----|
|-0------|-0------|-0------|-0------|
|0-------|1-----1-|0-------|1-------|
|
|W       |W       |W       |W       |
|--------|--------|--------|--------|
|--------|--------|--------|--------|
|--------|--------|--------|--------|
|0-------|0-------|0-------|0-------|
|0-------|0-------|0-------|0-------|
|0-------|0-------|0-------|0-------|


|EEEH..  |EEEQ. Q |EEEH..  |EEEQ. Q |
|--------|--------|--------|--------|
|--------|--------|--------|---3----|
|--------|--------|--------|------2-|
|--03----|--03----|--03----|--0-----|
|-0------|-0------|-0------|-0------|
|0-------|1-----1-|0-------|1-------|
|
|W       |W       |W       |W       |
|--------|--------|--------|--------|
|--------|--------|--------|--------|
|--------|--------|--------|--------|
|0-------|0-------|0-------|0-------|
|0-------|0-------|0-------|0-------|
|0-------|0-------|0-------|0-------|


Guitar I - Distorted
|W       |H   Q Q |W       |H   Q Q |
|--------|--------|--------|--------|
|--------|--------|--------|----3---|
|--------|--------|--------|------2-|
|--------|--------|--------|--------|
|0-------|1---3-1-|0-------|1-------|
|0-------|1---3-1-|0-------|1-------|
|
|W       |+W      |W       |+W      |
|--------|--------|--------|--------|
|--------|--------|--------|--------|
|--------|--------|--------|--------|
|--------|--------|--------|--------|
|0-------|(0)-----|0-------|(0)-----|
|0-------|(0)-----|0-------|(0)-----|


|W       |H   Q Q |W       |H   Q Q |
|--------|--------|--------|--------|
|--------|--------|--------|----3---|
|--------|--------|--------|------2-|
|--------|--------|--------|--------|
|0-------|1---3-1-|0-------|1-------|
|0-------|1---3-1-|0-------|1-------|
|
|W       |+W      |W       |+W      |
|--------|--------|--------|--------|
|--------|--------|--------|--------|
|--------|--------|--------|--------|
|--------|--------|--------|--------|
|0-------|(0)-----|0-------|(0)-----|
|0-------|(0)-----|0-------|(0)-----|


Verse I

|W       | H.   Q  | W      | H       Q  Q |
|--------|---------|--------|--------------|
|--------|---------|--------|---------3----|
|--------|---------|--------|------------2-|
|--------|---------|--------|--------------|
|9TP-----|10TP--9TP|--------|--------------|
|--------|---------|12TP----|10TP----------|
|
|W       | H.   Q  | W      | Q.    Q.  Q  |
|--------|---------|--------|--------------|
|--------|---------|--------|--------------|
|--------|---------|--------|--------------|
|--------|---------|--------|--------------|
|9TP-----|10TP--9TP|--------|--------------|
|--------|---------|12TP----|10TP--12TP13TP|


|W       | H.   Q  | W      | H       Q  Q |
|--------|---------|--------|--------------|
|--------|---------|--------|---------3----|
|--------|---------|--------|------------2-|
|--------|---------|--------|--------------|
|9TP-----|10TP--9TP|--------|--------------|
|--------|---------|12TP----|10TP----------|
|
|W       | H.   Q  | W      | Q.    Q.  Q  |
|--------|---------|--------|--------------|
|--------|---------|--------|--------------|
|--------|---------|--------|--------------|
|--------|---------|--------|--------------|
|9TP-----|10TP--9TP|--------|--------------|
|--------|---------|12TP----|10TP--12TP13TP|


|W       |H.   Q  | W      | H       Q  Q |
|--------|--------|--------|--------------|
|--------|--------|--------|---------3----|
|--------|--------|--------|------------2-|
|--------|8TB--7TB|--------|--------------|
|9TP-----|--------|--------|--------------|
|--------|--------|12TP----|10TP----------|
|
|W       |H.   Q  | W      | Q.    Q.  Q  |
|--------|--------|--------|--------------|
|--------|--------|--------|--------------|
|--------|--------|--------|--------------|
|--------|8TB--7TB|--------|--------------|
|9TP-----|--------|--------|--------------|
|--------|--------|12TP----|10TP--12TP13TP|


|W       |H.   Q  | W      | H       Q  Q |
|--------|--------|--------|--------------|
|--------|--------|--------|---------3----|
|--------|--------|--------|------------2-|
|--------|8TB--7TB|--------|--------------|
|9TP-----|--------|--------|--------------|
|--------|--------|12TP----|10TP----------|
|
|W       |H.   Q  | W      | Q.    Q.  Q  |
|--------|--------|--------|--------------|
|--------|--------|--------|--------------|
|--------|--------|--------|--------------|
|--------|8TB--7TB|--------|--------------|
|9TP-----|--------|--------|--------------|
|--------|--------|12TP----|10TP--12TP13TP|


|W       |H   Q Q |W       |H   Q Q |
|--------|--------|--------|--------|
|--------|--------|--------|----3---|
|--------|--------|--------|------2-|
|--------|--------|--------|--------|
|0-------|1---3-1-|0-------|1-------|
|0-------|1---3-1-|0-------|1-------|
|
|W       |+W      |W       |+W      |
|--------|--------|--------|--------|
|--------|--------|--------|--------|
|--------|--------|--------|--------|
|--------|--------|--------|--------|
|0-------|(0)-----|0-------|(0)-----|
|0-------|(0)-----|0-------|(0)-----|


|W       |H   Q Q |W       |H   Q Q |
|--------|--------|--------|--------|
|--------|--------|--------|----3---|
|--------|--------|--------|------2-|
|--------|--------|--------|--------|
|0-------|1---3-1-|0-------|1-------|
|0-------|1---3-1-|0-------|1-------|
|
|W       |+W      |W       |+W      |
|--------|--------|--------|--------|
|--------|--------|--------|--------|
|--------|--------|--------|--------|
|--------|--------|--------|--------|
|0-------|(0)-----|0-------|(0)-----|
|0-------|(0)-----|0-------|(0)-----|


Verse II

|W       | H.   Q  | W      | H       Q  Q |
|--------|---------|--------|--------------|
|--------|---------|--------|---------3----|
|--------|---------|--------|------------2-|
|--------|---------|--------|--------------|
|9TP-----|10TP--9TP|--------|--------------|
|--------|---------|12TP----|10TP----------|
|
|W       | H.   Q  | W      | Q.    Q.  Q  |
|--------|---------|--------|--------------|
|--------|---------|--------|--------------|
|--------|---------|--------|--------------|
|--------|---------|--------|--------------|
|9TP-----|10TP--9TP|--------|--------------|
|--------|---------|12TP----|10TP--12TP13TP|


|W       | H.   Q  | W      | H       Q  Q |
|--------|---------|--------|--------------|
|--------|---------|--------|---------3----|
|--------|---------|--------|------------2-|
|--------|---------|--------|--------------|
|9TP-----|10TP--9TP|--------|--------------|
|--------|---------|12TP----|10TP----------|
|
|W       | H.   Q  | W      | Q.    Q.  Q  |
|--------|---------|--------|--------------|
|--------|---------|--------|--------------|
|--------|---------|--------|--------------|
|--------|---------|--------|--------------|
|9TP-----|10TP--9TP|--------|--------------|
|--------|---------|12TP----|10TP--12TP13TP|


|W       |H.   Q  | W      | H       Q  Q |
|--------|--------|--------|--------------|
|--------|--------|--------|---------3----|
|--------|--------|--------|------------2-|
|--------|8TB--7TB|--------|--------------|
|9TP-----|--------|--------|--------------|
|--------|--------|12TP----|10TP----------|
|
|W       |H.   Q  | W      | Q.    Q.  Q  |
|--------|--------|--------|--------------|
|--------|--------|--------|--------------|
|--------|--------|--------|--------------|
|--------|8TB--7TB|--------|--------------|
|9TP-----|--------|--------|--------------|
|--------|--------|12TP----|10TP--12TP13TP|


|W       |H.   Q  | W      | H       Q  Q |
|--------|--------|--------|--------------|
|--------|--------|--------|---------3----|
|--------|--------|--------|------------2-|
|--------|8TB--7TB|--------|--------------|
|9TP-----|--------|--------|--------------|
|--------|--------|12TP----|10TP----------|
|
|W       |H.   Q  | W      | Q.    Q.  Q  |
|--------|--------|--------|--------------|
|--------|--------|--------|--------------|
|--------|--------|--------|--------------|
|--------|8TB--7TB|--------|--------------|
|9TP-----|--------|--------|--------------|
|--------|--------|12TP----|10TP--12TP13TP|


|W       |H   Q Q |W       |H   Q Q |
|--------|--------|--------|--------|
|--------|--------|--------|----3---|
|--------|--------|--------|------2-|
|--------|--------|--------|--------|
|0-------|1---3-1-|0-------|1-------|
|0-------|1---3-1-|0-------|1-------|
|
|W       |+W      |W       |+W      |
|--------|--------|--------|--------|
|--------|--------|--------|--------|
|--------|--------|--------|--------|
|--------|--------|--------|--------|
|0-------|(0)-----|0-------|(0)-----|
|0-------|(0)-----|0-------|(0)-----|


|W       |H   Q Q |W       |H   Q Q |
|--------|--------|--------|--------|
|--------|--------|--------|----3---|
|--------|--------|--------|------2-|
|--------|--------|--------|--------|
|0-------|1---3-1-|0-------|1-------|
|0-------|1---3-1-|0-------|1-------|
|
|W       |+W      |W       |+W      |
|--------|--------|--------|--------|
|--------|--------|--------|--------|
|--------|--------|--------|--------|
|--------|--------|--------|--------|
|0-------|(0)-----|0-------|(0)-----|
|0-------|(0)-----|0-------|(0)-----|


Chorus I

|W       |H   H   |H   Q Q |H   Q Q |
|--------|--------|--------|--------|
|--------|--------|----3---|----3---|
|--------|--------|------2-|------2-|
|--------|--------|--------|--------|
|5TP-----|4TP-8TP-|0-------|0-------|
|5TP-----|4TP-8TP-|0-------|0-------|
|
|W       |H   H   |W       |W       |
|--------|--------|--------|--------|
|--------|--------|--------|--------|
|--------|--------|--------|--------|
|--------|--------|--------|--------|
|5TP-----|4TP-8TP-|0-------|0-------|
|5TP-----|4TP-8TP-|0-------|0-------|


|W       |H   H   |Q SSEEEQ|Q SSEEEQ|
|--------|--------|--------|--------|
|--------|--------|--------|--------|
|--------|--------|-----8-8|-----8-8|
|--------|--------|-----8-8|-----8-8|
|5TP-----|4TP-8TP-|0-000606|0-000606|
|5TP-----|4TP-8TP-|0-000-0-|0-000-0-|
|
|W       |H   H   |Q SSEEEQ|Q SSEEEQ|
|--------|--------|--------|--------|
|--------|--------|--------|--------|
|--------|--------|-----8-8|-----8-8|
|--------|--------|-----8-8|-----8-8|
|5TP-----|4TP-8TP-|0-000606|0-000606|
|5TP-----|4TP-8TP-|0-000-0-|0-000-0-|


|W       |H   H   |H   Q Q |H   Q Q |
|--------|--------|--------|--------|
|--------|--------|---*3*--|---*3*--|
|--------|--------|-----*2*|-----*2*|
|--------|--------|--------|--------|
|5TP-----|4TP-8TP-|0-------|0-------|
|5TP-----|4TP-8TP-|0-------|0-------|
|
|W       |H   H   |W       |W       |
|--------|--------|--------|--------|
|--------|--------|--------|--------|
|--------|--------|--------|--------|
|--------|--------|--------|--------|
|5TP-----|4TP-8TP-|0-------|0-------|
|5TP-----|4TP-8TP-|0-------|0-------|


|W       |H   H   |Q SSEEEQ|Q SSEEEQ|
|--------|--------|--------|--------|
|--------|--------|--------|--------|
|--------|--------|-----8-8|-----8-8|
|--------|--------|-----8-8|-----8-8|
|5TP-----|4TP-8TP-|0-000606|0-000606|
|5TP-----|4TP-8TP-|0-000-0-|0-000-0-|
|
|W       |H   H   |Q SSEEEQ|Q SSEEEQ|
|--------|--------|--------|--------|
|--------|--------|--------|--------|
|--------|--------|-----8-8|-----8-8|
|--------|--------|-----8-8|-----8-8|
|5TP-----|4TP-8TP-|0-000606|0-000606|
|5TP-----|4TP-8TP-|0-000-0-|0-000-0-|


|W       |H   Q Q |W       |H   Q Q |
|--------|--------|--------|--------|
|--------|--------|--------|----3---|
|--------|--------|--------|------2-|
|--------|--------|--------|--------|
|0-------|1---3-1-|0-------|1-------|
|0-------|1---3-1-|0-------|1-------|
|
|W       |+W      |W       |+W      |
|--------|--------|--------|--------|
|--------|--------|--------|--------|
|--------|--------|--------|--------|
|--------|--------|--------|--------|
|0-------|(0)-----|0-------|(0)-----|
|0-------|(0)-----|0-------|(0)-----|


|W       |H   Q Q |W       |H   Q Q |
|--------|--------|--------|--------|
|--------|--------|--------|----3---|
|--------|--------|--------|------2-|
|--------|--------|--------|--------|
|0-------|1---3-1-|0-------|1-------|
|0-------|1---3-1-|0-------|1-------|
|
|W       |+W      |W       |+W      |
|--------|--------|--------|--------|
|--------|--------|--------|--------|
|--------|--------|--------|--------|
|--------|--------|--------|--------|
|0-------|(0)-----|0-------|(0)-----|
|0-------|(0)-----|0-------|(0)-----|


|W       |H   H   |H   Q Q |H   Q Q |
|--------|--------|--------|--------|
|--------|--------|----3---|----3---|
|--------|--------|------2-|------2-|
|--------|--------|--------|--------|
|5TP-----|4TP-8TP-|0-------|0-------|
|5TP-----|4TP-8TP-|0-------|0-------|
|
|W       |H   H   |W       |W       |
|--------|--------|--------|--------|
|--------|--------|--------|--------|
|--------|--------|--------|--------|
|--------|--------|--------|--------|
|5TP-----|4TP-8TP-|0-------|0-------|
|5TP-----|4TP-8TP-|0-------|0-------|


|W       |H   H   |Q SSEEEQ|Q SSEEEQ|
|--------|--------|--------|--------|
|--------|--------|--------|--------|
|--------|--------|-----8-8|-----8-8|
|--------|--------|-----8-8|-----8-8|
|5TP-----|4TP-8TP-|0-000606|0-000606|
|5TP-----|4TP-8TP-|0-000-0-|0-000-0-|
|
|W       |H   H   |Q SSEEEQ|Q SSEEEQ|
|--------|--------|--------|--------|
|--------|--------|--------|--------|
|--------|--------|-----8-8|-----8-8|
|--------|--------|-----8-8|-----8-8|
|5TP-----|4TP-8TP-|0-000606|0-000606|
|5TP-----|4TP-8TP-|0-000-0-|0-000-0-|


|W       |H   H   |H   Q Q |H   Q Q |
|--------|--------|--------|--------|
|--------|--------|---*3*--|---*3*--|
|--------|--------|-----*2*|-----*2*|
|--------|--------|--------|--------|
|5TP-----|4TP-8TP-|0-------|0-------|
|5TP-----|4TP-8TP-|0-------|0-------|
|
|W       |H   H   |W       |W       |
|--------|--------|--------|--------|
|--------|--------|--------|--------|
|--------|--------|--------|--------|
|--------|--------|--------|--------|
|5TP-----|4TP-8TP-|0-------|0-------|
|5TP-----|4TP-8TP-|0-------|0-------|


|W       |H   H   |Q SSEEEQ|Q SSEEEQ|
|--------|--------|--------|--------|
|--------|--------|--------|--------|
|--------|--------|-----8-8|-----8-8|
|--------|--------|-----8-8|-----8-8|
|5TP-----|4TP-8TP-|0-000606|0-000606|
|5TP-----|4TP-8TP-|0-000-0-|0-000-0-|
|
|W       |H   H   |Q SSEEEQ|Q SSEEEQ|
|--------|--------|--------|--------|
|--------|--------|--------|--------|
|--------|--------|-----8-8|-----8-8|
|--------|--------|-----8-8|-----8-8|
|5TP-----|4TP-8TP-|0-000606|0-000606|
|5TP-----|4TP-8TP-|0-000-0-|0-000-0-|


Interlude

Guitar I - Clean
|Q Q Q Q |Q Q Q Q |W       |+W      |
|--------|--------|--------|--------|
|--------|--------|--------|--------|
|--------|--------|--------|--------|
|--4-3---|4-3-----|3-------|(3)-----|
|5-----5-|----6/8-|5-------|(5)-----|
|--------|--------|0-------|(0)-----|
|
|
|Wr      |+Wr     |+Wr     |+Wr     |
|--------|--------|--------|--------|
|--------|--------|--------|--------|
|--------|--------|--------|--------|
|--------|--------|--------|--------|
|--------|--------|--------|--------|
|--------|--------|--------|--------|

|Q Q Q Q |Q Q Q Q |W       |+W      |
|--------|--------|--------|--------|
|--------|--------|--------|--------|
|--------|--------|--------|--------|
|--4-3---|4-3-----|3-------|(3)-----|
|5-----5-|----6/8-|5-------|(5)-----|
|--------|--------|0-------|(0)-----|
|
|
|Wr      |+Wr     |+Wr     |+Wr     |
|--------|--------|--------|--------|
|--------|--------|--------|--------|
|--------|--------|--------|--------|
|--------|--------|--------|--------|
|--------|--------|--------|--------|
|--------|--------|--------|--------|


|Q Q Q Q |Q Q Q Q |W       |+W      |
|--------|--------|--------|--------|
|--------|--------|--------|--------|
|--------|--------|--------|--------|
|--4-3---|4-3-----|3-------|(3)-----|
|5-----5-|----6/8-|5-------|(5)-----|
|--------|--------|0-------|(0)-----|
|
|
|Wr      |+Wr     |+Wr     |+Wr     |
|--------|--------|--------|--------|
|--------|--------|--------|--------|
|--------|--------|--------|--------|
|--------|--------|--------|--------|
|--------|--------|--------|--------|
|--------|--------|--------|--------|

              vDistorted
|Q Q Q Q |Q Q Q Q |W       |+W      |
|--------|--------|--------|--------|
|--------|--------|--------|--------|
|--------|--------|--------|--------|
|--4-3---|4-3-----|3-------|(3)-----|
|5-----5-|----6/8-|5-------|(5)-----|
|--------|--------|0-------|(0)-----|
|
|
|Wr      |+Hr Q Q |W       |+W      |
|--------|--------|--------|--------|
|--------|--------|--------|--------|
|--------|--------|--------|--------|
|--------|----6/8-|5-------|(5)-----|
|--------|----6/8-|5-------|(5)-----|
|--------|----6/8-|5-------|(5)-----|


|Q Q Q Q |Q Q Q Q |W       |+W      |
|--------|--------|--------|--------|
|--------|--------|--------|--------|
|--------|--------|--------|--------|
|--4-3---|4-3-----|3-------|(3)-----|
|5-----5-|----6/8-|5-------|(5)-----|
|--------|--------|0-------|(0)-----|
|
|
|Q Q Q Q |Q Q Q Q |W       |+W      |
|--------|--------|--------|--------|
|--------|--------|--------|--------|
|--6-5---|6-5-----|--------|--------|
|5-4-3-5-|4-3-6/8-|5-------|(5)-----|
|5-----5-|----6/8-|5-------|(5)-----|
|5-----5-|----6/8-|5-------|(5)-----|


|Q Q Q Q |Q Q Q Q |W     Q |+H   H  |
|--------|--------|--------|--------|
|--------|--------|------3-|(3)-----|
|--------|--------|--------|-----2--|
|--4-3---|4-3-----|3-------|--------|
|5-----5-|----6/8-|5-------|--------|
|--------|--------|0-------|--------|
|
|
|Q Q Q Q |Q Q Q Q |H.      |+W      |
|--------|--------|--------|--------|
|--------|--------|--------|--------|
|--6-5---|6-5-----|--------|--------|
|5-4-3-5-|4-3-6/8-|5-------|(5)-----|
|5-----5-|----6/8-|5-------|(5)-----|
|5-----5-|----6/8-|5-------|(5)-----|


|Q Q Q Q |Q Q Q Q |W       |+W      |
|--------|--------|--------|--------|
|--------|--------|--------|--------|
|--------|--------|--------|--------|
|--4-3---|4-3-----|3-------|(3)-----|
|5-----5-|----6/8-|5-------|(5)-----|
|--------|--------|0-------|(0)-----|
|
|
|Q Q Q Q |Q Q Q Q |W       |+W      |
|--------|--------|--------|--------|
|--------|--------|--------|--------|
|--6-5---|6-5-----|--------|--------|
|5-4-3-5-|4-3-6/8-|5-------|(5)-----|
|5-----5-|----6/8-|5-------|(5)-----|
|5-----5-|----6/8-|5-------|(5)-----|


|Q Q Q Q |Q Q Q Q |W     Q |+H   H  |
|--------|--------|--------|--------|
|--------|--------|------3-|(3)-----|
|--------|--------|--------|-----2--|
|--4-3---|4-3-----|3-------|--------|
|5-----5-|----6/8-|5-------|--------|
|--------|--------|0-------|--------|
|
|
|Q Q Q Q |Q Q Q Q |H.      |+W      |
|--------|--------|--------|--------|
|--------|--------|--------|--------|
|--6-5---|6-5-----|--------|--------|
|5-4-3-5-|4-3-6/8-|5-------|(5)-----|
|5-----5-|----6/8-|5-------|(5)-----|
|5-----5-|----6/8-|5-------|(5)-----|


Verse II

|Q Q Q Q |Q Q Q Q |W       |+W      |
|--------|--------|--------|--------|
|--------|--------|--------|--------|
|--------|--------|--------|--------|
|--4-3---|4-3-----|3-----3-|(3)--3--|
|5-----5-|----6/8-|5-------|--------|
|--------|--------|0-------|--------|
|
|
|Q Q Q Q |Q Q Q Q |W       |+W      |
|--------|--------|--------|--------|
|--------|--------|--------|--------|
|--6-5---|6-5-----|--------|--------|
|5-4-3-5-|4-3-6/8-|5-------|(5)-----|
|5-----5-|----6/8-|5-------|(5)-----|
|5-----5-|----6/8-|5-------|(5)-----|


|Q Q Q Q |Q Q Q Q |W     Q |+H   H  |
|--------|--------|--------|--------|
|--------|--------|------3-|(3)-----|
|--------|--------|--------|-----2--|
|--4-3---|4-3-----|3-------|--------|
|5-----5-|----6/8-|5-------|--------|
|--------|--------|0-------|--------|
|
|
|Q Q Q Q |Q Q Q Q |H.      |+W      |
|--------|--------|--------|--------|
|--------|--------|--------|--------|
|--6-5---|6-5-----|--------|--------|
|5-4-3-5-|4-3-6/8-|5-------|(5)-----|
|5-----5-|----6/8-|5-------|(5)-----|
|5-----5-|----6/8-|5-------|(5)-----|


|Q Q Q Q |Q Q Q Q |W       |+W      |
|--------|--------|--------|--------|
|--------|--------|--------|--------|
|--------|--------|--------|--------|
|--4-3---|4-3-----|3-----3-|(3)--3--|
|5-----5-|----6/8-|5-------|--------|
|--------|--------|0-------|--------|
|
|
|Q Q Q Q |Q Q Q Q |W       |+W      |
|--------|--------|--------|--------|
|--------|--------|--------|--------|
|--6-5---|6-5-----|--------|--------|
|5-4-3-5-|4-3-6/8-|5-------|(5)-----|
|5-----5-|----6/8-|5-------|(5)-----|
|5-----5-|----6/8-|5-------|(5)-----|


|Q Q Q Q |Q Q Q Q |W     Q |+H   H  |
|--------|--------|--------|--------|
|--------|--------|------3-|(3)-----|
|--------|--------|--------|-----2--|
|--4-3---|4-3-----|3-------|--------|
|5-----5-|----6/8-|5-------|--------|
|--------|--------|0-------|--------|
|
|
|Q Q Q Q |Q Q Q Q |H.      |+W      |
|--------|--------|--------|--------|
|--------|--------|--------|--------|
|--6-5---|6-5-----|--------|--------|
|5-4-3-5-|4-3-6/8-|5-------|(5)-----|
|5-----5-|----6/8-|5-------|(5)-----|
|5-----5-|----6/8-|5-------|(5)-----|


|Q Q Q Q |Q Q Q Q |W       |+W      |
|--------|--------|--------|--------|
|--------|--------|--------|--------|
|--------|--------|--------|--------|
|--4-3---|4-3-----|3-------|(3)-----|
|5-----5-|----6/8-|5-------|(5)-----|
|--------|--------|0-------|(0)-----|
|
|
|Q Q Q Q |Q Q Q Q |W       |+W      |
|--------|--------|--------|--------|
|--------|--------|--------|--------|
|--6-5---|6-5-----|--------|--------|
|5-4-3-5-|4-3-6/8-|5-------|(5)-----|
|5-----5-|----6/8-|5-------|(5)-----|
|5-----5-|----6/8-|5-------|(5)-----|


|Q Q Q Q |Q Q Q Q |W     Q |+H   H  |
|--------|--------|--------|--------|
|--------|--------|------3-|(3)-----|
|--------|--------|--------|-----2--|
|--4-3---|4-3-----|3-------|--------|
|5-----5-|----6/8-|5-------|--------|
|--------|--------|0-------|--------|
|
|
|Q Q Q Q |Q Q Q Q |H.      |+W      |
|--------|--------|--------|--------|
|--------|--------|--------|--------|
|--6-5---|6-5-----|--------|--------|
|5-4-3-5-|4-3-6/8-|5-------|(5)-----|
|5-----5-|----6/8-|5-------|(5)-----|
|5-----5-|----6/8-|5-------|(5)-----|


|Q Q Q Q |Q Q Q Q |W       |+W      |
|--------|--------|--------|--------|
|--------|--------|--------|--------|
|--------|--------|--------|--------|
|--4-3---|4-3-----|3-------|(3)-----|
|5-----5-|----6/8-|5-------|(5)-----|
|--------|--------|0-------|(0)-----|
|
|
|Q Q Q Q |Q Q Q Q |W       |+W      |
|--------|--------|--------|--------|
|--------|--------|--------|--------|
|--6-5---|6-5-----|--------|--------|
|5-4-3-5-|4-3-6/8-|5-------|(5)-----|
|5-----5-|----6/8-|5-------|(5)-----|
|5-----5-|----6/8-|5-------|(5)-----|


|Q Q Q Q |Q Q Q Q |W     Q |+H   EEQr|
|--------|--------|--------|---------|
|--------|--------|------3-|(3)------|
|--------|--------|--------|---------|
|--4-3---|4-3-----|3-------|-----22--|
|5-----5-|----6/8-|5-------|-----22--|
|--------|--------|0-------|-----22--|
|
|
|Q Q Q Q |Q Q Q Q |H.      |+H   EEQr|
|--------|--------|--------|---------|
|--------|--------|--------|---------|
|--6-5---|6-5-----|--------|---------|
|5-4-3-5-|4-3-6/8-|5-------|(5)--22--|
|5-----5-|----6/8-|5-------|(5)--22--|
|5-----5-|----6/8-|5-------|(5)--22--|


|W       |H   Q Q |W       |H   Q Q |
|--------|--------|--------|--------|
|--------|--------|--------|----3---|
|--------|--------|--------|------2-|
|--------|--------|--------|--------|
|0-------|1---3-1-|0-------|1-------|
|0-------|1---3-1-|0-------|1-------|
|
|W       |+W      |W       |+W      |
|--------|--------|--------|--------|
|--------|--------|--------|--------|
|--------|--------|--------|--------|
|--------|--------|--------|--------|
|0-------|(0)-----|0-------|(0)-----|
|0-------|(0)-----|0-------|(0)-----|


|W       |H   Q Q |W       |H   Q Q |
|--------|--------|--------|--------|
|--------|--------|--------|----3---|
|--------|--------|--------|------2-|
|--------|--------|--------|--------|
|0-------|1---3-1-|0-------|1-------|
|0-------|1---3-1-|0-------|1-------|
|
|W       |+W      |W       |+W      |
|--------|--------|--------|--------|
|--------|--------|--------|--------|
|--------|--------|--------|--------|
|--------|--------|--------|--------|
|0-------|(0)-----|0-------|(0)-----|
|0-------|(0)-----|0-------|(0)-----|


Verse III

|W       | H.   Q  | W      | H       Q  Q |
|--------|---------|--------|--------------|
|--------|---------|--------|---------3----|
|--------|---------|--------|------------2-|
|--------|---------|--------|--------------|
|9TP-----|10TP--9TP|--------|--------------|
|--------|---------|12TP----|10TP----------|
|
|W       | H.   Q  | W      | Q.    Q.  Q  |
|--------|---------|--------|--------------|
|--------|---------|--------|--------------|
|--------|---------|--------|--------------|
|--------|---------|--------|--------------|
|9TP-----|10TP--9TP|--------|--------------|
|--------|---------|12TP----|10TP--12TP13TP|


|W       |H.   Q  | W      | H       Q  Q |
|--------|--------|--------|--------------|
|--------|--------|--------|---------3----|
|--------|--------|--------|------------2-|
|--------|8TB--7TB|--------|--------------|
|9TP-----|--------|--------|--------------|
|--------|--------|12TP----|10TP----------|
|
|W       |H.   Q  | W      | Q.    Q.  Q  |
|--------|--------|--------|--------------|
|--------|--------|--------|--------------|
|--------|--------|--------|--------------|
|--------|8TB--7TB|--------|--------------|
|9TP-----|--------|--------|--------------|
|--------|--------|12TP----|10TP--12TP13TP|


|W       | H.   Q  | W      | H       Q  Q |
|--------|---------|--------|--------------|
|--------|---------|--------|---------3----|
|--------|---------|--------|------------2-|
|--------|---------|--------|--------------|
|9TP-----|10TP--9TP|--------|--------------|
|--------|---------|12TP----|10TP----------|
|
|W       | H.   Q  | W      | Q.    Q.  Q  |
|--------|---------|--------|--------------|
|--------|---------|--------|--------------|
|--------|---------|--------|--------------|
|--------|---------|--------|--------------|
|9TP-----|10TP--9TP|--------|--------------|
|--------|---------|12TP----|10TP--12TP13TP|


|W       |H.   Q  | W      | H       Q  Q |
|--------|--------|--------|--------------|
|--------|--------|--------|---------3----|
|--------|--------|--------|------------2-|
|--------|8TB--7TB|--------|--------------|
|9TP-----|--------|--------|--------------|
|--------|--------|12TP----|10TP----------|
|
|W       |H.   Q  | W      | Q.    Q.  Q  |
|--------|--------|--------|--------------|
|--------|--------|--------|--------------|
|--------|--------|--------|--------------|
|--------|8TB--7TB|--------|--------------|
|9TP-----|--------|--------|--------------|
|--------|--------|12TP----|10TP--12TP13TP|


Chorus I

|W       |H   H   |H   Q Q |H   Q Q |
|--------|--------|--------|--------|
|--------|--------|----3---|----3---|
|--------|--------|------2-|------2-|
|--------|--------|--------|--------|
|5TP-----|4TP-8TP-|0-------|0-------|
|5TP-----|4TP-8TP-|0-------|0-------|
|
|W       |H   H   |W       |W       |
|--------|--------|--------|--------|
|--------|--------|--------|--------|
|--------|--------|--------|--------|
|--------|--------|--------|--------|
|5TP-----|4TP-8TP-|0-------|0-------|
|5TP-----|4TP-8TP-|0-------|0-------|


|W       |H   H   |Q SSEEEQ|Q SSEEEQ|
|--------|--------|--------|--------|
|--------|--------|--------|--------|
|--------|--------|-----8-8|-----8-8|
|--------|--------|-----8-8|-----8-8|
|5TP-----|4TP-8TP-|0-000606|0-000606|
|5TP-----|4TP-8TP-|0-000-0-|0-000-0-|
|
|W       |H   H   |Q SSEEEQ|Q SSEEEQ|
|--------|--------|--------|--------|
|--------|--------|--------|--------|
|--------|--------|-----8-8|-----8-8|
|--------|--------|-----8-8|-----8-8|
|5TP-----|4TP-8TP-|0-000606|0-000606|
|5TP-----|4TP-8TP-|0-000-0-|0-000-0-|


|W       |H   H   |H   Q Q |H   Q Q |
|--------|--------|--------|--------|
|--------|--------|---*3*--|---*3*--|
|--------|--------|-----*2*|-----*2*|
|--------|--------|--------|--------|
|5TP-----|4TP-8TP-|0-------|0-------|
|5TP-----|4TP-8TP-|0-------|0-------|
|
|W       |H   H   |W       |W       |
|--------|--------|--------|--------|
|--------|--------|--------|--------|
|--------|--------|--------|--------|
|--------|--------|--------|--------|
|5TP-----|4TP-8TP-|0-------|0-------|
|5TP-----|4TP-8TP-|0-------|0-------|


|W       |H   H   |Q SSEEEQ|Q SSEEEQ|Q SSEEEQ|Q SSEEEQ|
|--------|--------|--------|--------|--------|--------|
|--------|--------|--------|--------|--------|--------|
|--------|--------|-----8-8|-----8-8|-----8-8|-----8-8|
|--------|--------|-----8-8|-----8-8|-----8-8|-----8-8|
|5TP-----|4TP-8TP-|0-000606|0-000606|0-000606|0-000606|
|5TP-----|4TP-8TP-|0-000-0-|0-000-0-|0-000-0-|0-000-0-|
|
|W       |H   H   |Q SSEEEQ|Q SSEEEQ|Q SSEEEQ|Q SSEEEQ|
|--------|--------|--------|--------|--------|--------|
|--------|--------|--------|--------|--------|--------|
|--------|--------|-----8-8|-----8-8|-----8-8|-----8-8|
|--------|--------|-----8-8|-----8-8|-----8-8|-----8-8|
|5TP-----|4TP-8TP-|0-000606|0-000606|0-000606|0-000606|
|5TP-----|4TP-8TP-|0-000-0-|0-000-0-|0-000-0-|0-000-0-|


Outro

Guitar I - Clean
|Q Q Q Q |Q Q Q Q |W       |+W      |
|--------|--------|--------|--------|
|--------|--------|--------|--------|
|--------|--------|--------|--------|
|--4-3---|4-3-----|3-------|(3)-----|
|5-----5-|----6/8-|5-------|(5)-----|
|--------|--------|0-------|(0)-----|
|
|
|Wr      |+Wr     |+Wr     |+Wr     |
|--------|--------|--------|--------|
|--------|--------|--------|--------|
|--------|--------|--------|--------|
|--------|--------|--------|--------|
|--------|--------|--------|--------|
|--------|--------|--------|--------|

|Q Q Q Q |Q Q Q Q |W       |+W      |
|--------|--------|--------|--------|
|--------|--------|--------|--------|
|--------|--------|--------|--------|
|--4-3---|4-3-----|3-------|(3)-----|
|5-----5-|----6/8-|5-------|(5)-----|
|--------|--------|0-------|(0)-----|
|
|
|Wr      |+Wr     |+Wr     |+Wr     |
|--------|--------|--------|--------|
|--------|--------|--------|--------|
|--------|--------|--------|--------|
|--------|--------|--------|--------|
|--------|--------|--------|--------|
|--------|--------|--------|--------|


|Q Q Q Q |Q Q Q Q |W       |+W      |
|--------|--------|--------|--------|
|--------|--------|--------|--------|
|--------|--------|--------|--------|
|--4-3---|4-3-----|3-------|(3)-----|
|5-----5-|----6/8-|5-------|(5)-----|
|--------|--------|0-------|(0)-----|
|
|
|Wr      |+Wr     |+Wr     |+Wr     |
|--------|--------|--------|--------|
|--------|--------|--------|--------|
|--------|--------|--------|--------|
|--------|--------|--------|--------|
|--------|--------|--------|--------|
|--------|--------|--------|--------|

              vDistorted
|Q Q Q Q |Q Q Q Q |W       |+W      |+W |+W |+W |+H  H | +H    H | +Q.  E  H | Q  H.| +H.  Q | +W  | W | +W  | W | +W  | +W  *|
|--------|--------|--------|--------|---|---|---|---<7>|(<7>)-<7>|(<7>)<5><7>|<5><7>|(<7>)<7>|(<7>)|<7>|(<7>)|<7>|(<7>)|(<7>)*|
|--------|--------|--------|--------|---|---|---|------|---------|-----------|------|--------|-----|---|-----|---|-----|-----*|
|--------|--------|--------|--------|---|---|---|------|---------|-----------|------|--------|-----|---|-----|---|-----|-----*|
|--4-3---|4-3-----|3-------|(3)-----|(3)|(3)|(3)|(3)---|---------|-----------|------|--------|-----|---|-----|---|-----|-----*|
|5-----5-|----6/8-|5-------|(5)-----|(5)|(5)|(5)|(5)---|---------|-----------|------|--------|-----|---|-----|---|-----|-----*|
|--------|--------|0-------|(0)-----|(0)|(0)|(0)|(0)---|---------|-----------|------|--------|-----|---|-----|---|-----|-----*|
|
|
|Wr      |+Hr Q Q |W       |+W      |+W |+W |+W |+W |+W |+W |+W |+W |+W |+W |+W |+W |+W |+W *|
|--------|--------|--------|--------|---|---|---|---|---|---|---|---|---|---|---|---|---|---*|
|--------|--------|--------|--------|---|---|---|---|---|---|---|---|---|---|---|---|---|---*|
|--------|--------|--------|--------|---|---|---|---|---|---|---|---|---|---|---|---|---|---*|
|--------|----6/8-|5-------|(5)-----|(5)|(5)|(5)|(5)|(5)|(5)|(5)|(5)|(5)|(5)|(5)|(5)|(5)|(5)*|
|--------|----6/8-|5-------|(5)-----|(5)|(5)|(5)|(5)|(5)|(5)|(5)|(5)|(5)|(5)|(5)|(5)|(5)|(5)*|
|--------|----6/8-|5-------|(5)-----|(5)|(5)|(5)|(5)|(5)|(5)|(5)|(5)|(5)|(5)|(5)|(5)|(5)|(5)*|





Duration Legend
---------------
W - whole; H - half; Q - quarter; E - 8th; S - 16th; T - 32nd; X - 64th; a - acciaccatura
Wr - whole rest; Hr - half rest; Qr - quarter rest; Er - 8th rest; S - 16th rest; T - 32nd rest; Xr - 64th rest
+ - note tied to previous; . - note dotted; .. - note double dotted
Uncapitalized letters represent notes that are staccato (1/2 duration)
Irregular groupings are notated above the duration line
Duration letters will always appear directly above the note/fret number it represents the
duration for.  Duration letters with no fret number below them represent rests.  Multi-
bar rests are notated in the form Wxn, where n is the number of bars to rest for.  Low
melody durations appear below the staff

Tablature Legend
----------------
 h   - hammer-on
 p   - pull-off
 b   - bend
 pb  - pre-bend
 r   - bend release (if no number after the r, then release immediately)
 /\  - slide into or out of (from/to "nowhere")
 s   - legato slide
 S   - shift slide
  - natural harmonic
[n]  - artificial harmonic
n(n) - tapped harmonic
 ~   - vibrato
 tr  - trill
 T   - tap
 TP  - trem. picking
 PM  - palm muting
*n*  - sustained note
\n/  - tremolo bar dip; n = amount to dip
 \n  - tremolo bar down
 n/  - tremolo bar up
/n\  - tremolo bar inverted dip
 =   - hold bend; also acts as connecting device for hammers/pulls
 <>  - volume swell (louder/softer)
 x   - on rhythm slash represents muted slash
 o   - on rhythm slash represents single note slash

Misc Legend
-----------
 |  - bar
||  - double bar
||o - repeat start
o|| - repeat end
 x? - repeat number of times
*|  - double bar (ending)
 :  - bar (freetime)
 $  - Segno
 &  - Coda
Tempo markers -  = BPM(8/16=s8/s16), where s8 = swing 8ths, s16 = swing 16ths
Related for Sorgens Kammer tab