Song name
# A B C D E F G H I J K L M N O P Q R S T U V W X Y Z

Dimmu Borgir - Spellboundby The Devil tab

BAND - DIMMU BORGIR
SONG - SPELLBOUND(BY THE DEVIL)
ALBUM - ENTHRONE DARKNESS TRIUMPHANT

TUNING - STANDERD (E,B,G,D,A,E,)


* = PALM MUTE
/ = SLIDE
~ = LET NOTE RING
h = HAMMER ON


     THIS IS AN AWSOME SONG IT SHOULD BE 100% SOUNDS GOOD TO ME.
                             PLZ RATE.


   INTRO 
E--------------X4]-----------------------------------X4]
B----------------]-------------------------------------]
G----------------]--6-------------6--------6--------6--]
D--6~~-----------]--6------6------6------6-6--7-6-4-6--]
A--4~~----5-4----]--4-4444-6-4444-4-4444-6-4--5-4-2-4--]
E--4~~--------7--]---------4-------------4-------------]
          * * *       ****   ****   ****      * * *


  RIFF 2 (VERSE)                    RIFF 3
E--------------------------------]--------------------X6]
B--------------------------------]----------------------]
G--6--------------------------6--]----------------------]
D--6-------------------7-6-4--6--]-------5-4-------4-5--]
A--4-4444444444444444--5-4-2--4--]-------7-6-------6-7--]
E--------------------------------]--0-00------0-00------]
     ****************  * * *        * **      * **


E-------------------X4]
B---------------------]
G---------------------]
D-------4-3-5----5----]
A-------2-1-3-33-3-6--]
E--0000---------------]
   ****       **

RIFF 3 X4

   
 RIFF 4 X2
E------X4]------------X4]--------------------X4]
B--------]--------------]----------------------]
G--------]--------------]----------------------]
D--------]--------------]----------------------]
A--2--3--]--2222-3333---]--6------6-7------7~--]
E--0--1--]--0000-1111---]--4-4444-4-5-5555-5~--]
                             ****     ****

 gtr 2 (behind riff 4 2nd time)
E---------------------------]
B---------------------------]
G---------------------------]
D--6-7-9-6~--6h7h9~-6h7h9~--]
A---------------------------]
E---------------------------]

E--------------------X4]
B----------------------]
G----------------------]
D----------------------]
A--6------6-7------7~--]
E--4-4444-4-5-5555-5~--]
     ****     ****


  RIFF 5
E------------------------X13]
B---------------------------]
G---------------------------]
D--6~~--2~~--5~~--8~~--7~~--]
A--6~~--2~~--5~~--6~~--5~~--]
E--4~~--0~~--3~~--6~~--5~~--]


   ------------------KEYBOARDS--------------


  RIFF 6 (OUTRO)

E------------------------------------------------------------]
B------------------------------------------------------------]
G------------------------------------------------------------]
D------------------------------------------------------------]
A--7-7777-7-7777-5-5555-5-5555--3-3333-3-3333-5-5555-5-5555--]
E--5-5555-5-5555-3-3333-3-3333--1-1111-1-1111-3-3333-3-3333--]


E------------------------------------------------------------]
B------------------------------------------------------------]
G------------------------------------------------------------]
D------------------------------------------------------------]
A--7-7777-7-7777-5-5555-5-5555--3-3333-3-3333-5-5555-6-6666--]
E--5-5555-5-5555-3-3333-3-3333--1-1111-1-1111-3-3333-4-4444--]



   RIFF 7 GTR 1
E-------------------------------------------------------------------]
B-------------------------------------------------------------------]
G-------------------------------------------------------------------]
D-------------------------------------------------------------------]
A---777777--555555--333333--555555--777777--555555--333333--666666--]
E---555555--333333--111111--333333--555555--333333--111111--444444--]
    ******  ******  ****** *******  ******  ******  ******  ******




  GTR 2 (2 GTRS PLAYING THIS IN HARMONY ARR. FOR 1 GTR)

E-----------------------------------------------------------------------]
B----------------------------10-8----------------8-10~------------------]
G----9-7----7-9----9-7--------------------9-----9-------10-9-9~-7-------]
D--10---10~-----10~-----10~-------10~---10-10~-------------------10-10~-]
A-----------------------------------------------------------------------]
E-----------------------------------------------------------------------]
                 REPEAT THIS AND FADE OUT.



 ENJOY.PLZ RATE.

 TABBED BY - IMMORTAL_STONE
  



Tap to rate this tab
# A B C D E F G H I J K L M N O P Q R S T U V W X Y Z