Song name
# A B C D E F G H I J K L M N O P Q R S T U V W X Y Z

Dimmu Borgir - Spellbound By The Devil Live tab

Solo Only


e----------------------------------------------------|
B----------------------------------------------------|
G----------------------------------------------------|
D---2-0---0-2---2-0---7-5---2-0---0-2----------------|
A-0-----3-----------3-----------3-------3-2---2------|
E-------------3-----------1-----------3-----3---3----|


e-------------------------------------------------------------|
B-------------------------------------------------------------|
G-------------------------------------------------------------|
D---2-0h2p0---0-2---2-0h2p0---7-5---2-0h2p0---0-2-------------|
A-0---------3---------------3---------------3-------3-2---2---|
E-----------------3---------------1---------------3-----3-----|

e--------------------------------------------------------------------|
B--------------------------------------------------------------------|
G--------------------------------------------------------------------|
D---2~---2-0------2~---2-0---0-2---2-0---0-2---2-0---7-5---2-0---0-2-|
A-0----------3~------------3-----0-----3-----------3-----------3-----|
E------3--------1----3-----------------------3-----------1-----------|

e--------------7--|
B-----------------|
G-----------------|
D-0---------------|
A---3-2---2-------|
E-------3---4-----|
Tap to rate this tab
 
# A B C D E F G H I J K L M N O P Q R S T U V W X Y Z