Song name
# A B C D E F G H I J K L M N O P Q R S T U V W X Y Z

Dimmu Borgir - Tormentor Of Cristian Souls tab

band - dimmu borgir
song - tormentor of cristian souls
album - enthrone darkness triuphant
tuning - standard (e,b,g,d,a,e,)

* - palm mute
/ - slide
ph - pinched harmonic
h - hammer on
p - pull off
" - trem pick
~ - let note ring

 ok i tabbed this because for starters its just an awsome song,2nd the other
 tab on here for it was way off.this sounds 100% to me.plz rate let me know
 what you think.



  intro (riff 1)

e-----]--------------------x6]
b-----]----------------------]
g-----]----------------------]
d--7--]--12"--11"--10"--7"---]
a--5--]--10"--9"---8"---5"---]
e--5--]----------------------]


  riff 2

e---------------------------------------------------------]
b---------------------------------------------------------]
g---------------------------------------------------------]
d---------------------------------------------------------]
a--7"--9"-10"-9"-3"-7"-5"----7"--9"-10"-9"--3"-10"-9"-----]
e--5"--7"--8"-7--1"-5"-3"----5"--7"--8"-7"--1"--8"-7"-----]

riff 1 x4


   fill
e-----------------------------------------]
b-----------------------------------------]
g-----------------------------------------]
d-----------------------------------------]
a--7--7/8/7--77---10/8--7/8/7--7/8/7--88--]
e--5--5/6/5--55----8/6--5/6/5--5/6/5--66--]
   *         **       


 verse 

e----------------x3]------4th time-----]
b------------------]-------------------]
g------------------]-------------------]
d------------------]-------------------]
a--7------7-8/7/5--]--7------7-8-8/10--]
e--5-5555-5-6/5/3--]--5-5555-5-6-6/8---]
     ****               ****



verse riff 2

                                      1st end,2nd end
e-------------------------------------]------]------]
b-------------------------------------]------]------]
g-------------------------------------]------]------]
d-------------------------------------]------]--88--]
a--7--7/8/7--77---10/8--7/8/7--7/8/7--]--88--]--66--]
e--5--5/6/5--55----8/6--5/6/5--5/6/5--]--66--]--66--]
   *         **       

verse riff  x4
verse riff 2 x2


  (interlude)

  part 1 x6 
e--------------------------------------------------------------------------]
b--------------------------------------------------------------------------]
g--------------------------------------------------------------------------]
d--------------------------------------------------------------------------]
a--------------------6666666666666666-------------------66666666-----------]
e--55555555-00000000------------------55555555-00000000----------33333333--]
   ******** ******** **************** ******** ******** ******** ********


   part 2 x2

e--------------]------------------]
b--------------]------------------]
g--------------]------------------]
d--7~--2~--8~--]--7~--2~--8~--5~--]
a--7~--2~--6~--]--5~--2~--6~--5~--]
e--5~--0~--6~--]--5~--0~--6~--3~--]


  part 3 x3

e------------------------------------------------------]
b------------------------------------------------------]
g--------------------------------8----9--8--8---8-9-8--]
d--2-------------2---------------6--66-66---6--6-6-6---]
a--2--3-2-0-2-0--2--3-2-0-2-0--------------------------]
e--0-------------0-------------------------------------]
      * * * * *     * * * * *


 part 4 x4


e--------------------------------------------------------]
b--------------------------------------------------------]
g----------------------------------8----9--8--8---8-9-8--]
d--2-------2ph---2-------2ph-------6--66-66---6--6-6-6---]
a--2--3-2-0------2--3-2-0--------------------------------]
e--0-------------0---------------------------------------]
      * * * * *     * * * * *


  part 5 x4

e----------------------------------]
b----------------------------------]
g----------------------------------]
d--2-3-2-0-2-0--2-3-2-0-2-0----8"--]
a--2------------2--------------6"--]
e--0------------0------------------]


 part 6 gtr1

e-------------------------------------]
b-------------------------------------]
g----------5-7-5-4------------4h5-4~--]
d----4-5-7--------------4-5-7---------]
a--7------------------7---------------]
e-------------------------------------]
   * * * *            * * * *


  part 6 gtr 2(rythm part)

e----------------]-------------------------------------------------]
b----------------]-------------------------------------------------]
g----------------]-------------------------------------------------]
d--2----2----8~--]-----------------------888888888888888888888888--]
a--2----2----6~--]-----------------------666666666666666666666666--]
e--0----0----6~--]--000000000000000000000--------------------------]
                    *********************



the guitar parts change briefly after part 6 but i cant remember what riffs
played,the riffs here you will just have to listen to the song to get it.


then play

intro riff x4
verse 2 riff x4 -end



 hope this helps with people wanting to learn it,its a brutal song! enjoy.

 tabbed by - immortal_stone



Tap to rate this tab
 
# A B C D E F G H I J K L M N O P Q R S T U V W X Y Z