Song name
# A B C D E F G H I J K L M N O P Q R S T U V W X Y Z

Dimmu Borgir - Serpentine Offering tab

this isnt the whole song but its the prechorus to the ending...

tuning from low to high---D,G,C,F,A,D

Tabbed by SatansReapers

reaperoftheholy@yahoo.com 

|-------------------------------|
|O------------------------------|
|-------------------------------|
|----------------------------3--|
|O---------------------------3--|
|--000-0--000-0--000000--000-1--|


|-------------------------------|
|------------------------------O|
|-------------------------------|
|----------------------------8--|
|----------------------------8-O|
|--000-0--000-0--000000--000-6--|


|--------------------------------
|--------------------------------
|--------------------------------
|--------------------------------
|----------------000541--000541--
|--000-0--000-0------------------

(Galder)
|-------------------------------------0----
|-------------------------------------0----
|-------------------------------------x----
|--3---6--3-------6--3---5--2---------2---2
|--3---6--3-------6--3---5--2---------2---2
|--1---4--1-------4--1---3--0---------0---0
|
|(Silenoz)
|------------------------------------------
|------------------------------------------
|------------------------------------------
|------------------------5--2--------------
|------------------------5--2--------------
|------------------------3--0--------------

                                  (1..3)
|----------------------------------|
|O--------------------------------O|
|-----------------------------0^1--|
|---3/6-------------------2^3------|
|O--------3/4-------2^3-----------O|
|--1----1-----1-4-0-----0----------|
|
|
|----------------------------------|
|---------------------------------O|
|----------------------------------|
|--3---6--3-------6--3---5--2------|
|--3---6--3-------6--3---5--2-----O|
|--1---4--1-------4--1---3--0------|

                     (2...repeat back to 1..3)
|---------------------|
|--------------------O|
|---------------------|
|----------2^3/5\2----|
|----2^3-------------O|
|--0-----0------------|
|
|
|-------------0-------|
|-------------0------O|
|---------------------|
|--5--2---------------|
|--5--2--------------O|
|--3--0---------------|

                    (come here after second time playing 1..3)
|--------------------|
|-------------------O|
|--------------------|
|----------2^3/5\2---|
|----2^3------------O|
|--0-----0-----------|
|
|
|--------------------|
|-------------------O|
|---------9-9-9/10---|
|--5--2---x-x-x/-----|
|--5--2---7-7-7/8---O|
|--3--0--------------|

                                        (1..3)
|------------------------0------0---0------|
|------------------------0------8---8-----O|
|------------------------x------9---9--0---|
|--3---6--3-----6--3---5/9------9---9--0---|
|--3---6--3-----6--3---5/7------7---7-----O|
|--1---4--1-----4--1---3/7------7---7------|
|
|
|------------------------------------------|
|-----------------------------------------O|
|------------------------------------------|
|--3---6--3-----6--3---5--2----------------|
|--3---6--3-----6--3---5--2---------------O|
|--1---4--1-----4--1---3--0----------------|

               (repeat back to 1..3)
|----------0------|
|----------0-----O|
|----------0------|
|--5--2----2------|
|--5--2----2-----O|
|--3--0----0------|
|
|
|----------0------|
|----------0-----O|
|-----------------|
|--5--2-----------|
|--5--2----------O|
|--3--0-----------|

                         (come here after second time of 1..3)
|----------------------------|
|---------------------------O|
|---------/12--12---12/13----|
|--5--2----x---x----x--------|
|--5--2---/10--10---10/11---O|
|--3--0----------------------|
|
|
|--------------0-------------|
|--------------0------------O|
|----------------------------|
|--5--2----------------------|
|--5--2---------------------O|
|--3--0----------------------|


(Both Guitars)
  . . . .     . . . .     . . . .     . . .  . . .  . . . . . .
|-------------------------------------------------------------------|
|O-----------------------------------------------------------------O|
|-------------------------------------------------------------------|
|-------------------------------------------------------------------|
|O-----------------------------------------------------------------O|
|--1-1-1-1-4^1-1-1-1-1-4^1-1-1-1-1-3^0-0-0-0--0-0-0--0-0-0-0-0-0----|

  . . . .     . . . .     . . . .
|---------------------------------------------------|
|---------------------------------------------------|
|---------------------------------------------------|
|----------------------------------5--2----2--2-----|
|----------------------------------5--2----2--2-----|
|--1-1-1-1-4^1-1-1-1-1-4^1-1-1-1-1-3--0----0--0-----|




.  palm mute

^ hammer on

/ slide up

\slide down
Tap to rate this tab
# A B C D E F G H I J K L M N O P Q R S T U V W X Y Z