Song name
# A B C D E F G H I J K L M N O P Q R S T U V W X Y Z

Dimmu Borgir - Sinister Awakening tab

Help us improve GuitareTab! Take a short survey!
both guitars tuned one whole step down (low to high D G C F A D)
gtrs. 1 and 2 moderately fast with distortion
fig. 1
|----------------------------------------------------------------|
|----------8-------------8--------------------------------------o|
|----------9-------------9-------------9-------------------------|
|----------9-------------9-------------9---10-10-----------------|
|----------7-------------7-------------7-8-------8-8------------o|
|--0-0-0-0---0-0-0-0-0-0---0-0-0-0-0-0---------------10-10-10-10-|
                                                    end fig. 1


|------------------------|-------------------------------------------------|
|---------------------7-o|-12-12-11-11-11-11-12-12-9--9--9--9--9--9--9--9-o|
|----------9\4--7--5--8--|-13-13-12-12-12-12-13-13-10-10-10-10-10-10-10-10-|
|----------9\4--7--5--8--|-13-13-12-12-12-12-13-13-10-10-10-10-10-10-10-10-|
|----------7\2--5--3--6-o|-11-11-10-10-10-10-11-11-8--8--8--8--8--8--8--8-o|
|--0-0-0-0---------------|-------------------------------------------------|

gtr. 2 repeats fig. 1

gtr. 1
|--12-0-0-7-0-0-8-0-11-0-0-7-0-0-8-0-12-0-0-7-0-0-8-0-11-0-8-0-7-0-8-0-|
|---------------------------------------------------------------------o|
|----------------------------------------------------------------------|
|----------------------------------------------------------------------|
|---------------------------------------------------------------------o|
|----------------------------------------------------------------------|

|--12-0-0-7-0-0-8-0-11-0-12-0-14-0-15-0--|
|---------------------------------------o|
|----------------------------------------|repeat twice
|----------------------------------------|
|---------------------------------------o|
|----------------------------------------|
Related for Sinister Awakening tab