Song name
# A B C D E F G H I J K L M N O P Q R S T U V W X Y Z

Dimmu Borgir - Fundamental Alienation tab

both guitars tuned one whole step down (low to high D G C F A D)
moderately fast
gtr. 1
|----------------------------------------|------------------------|
|---------------------------------------o|-----------------------o|
|----------------------------------------|------------------------|
|------------------5---------5--4h5p4----|----------3-------------|
|------------------5---3--3-----------6-o|-3--3--3--3--3--2h3p2--o|
|--0-0-0-0-0-0-0---3---------------------|-1--1--1--1-----------4-|
|
|gtr. 2
|----------------------------------------|------------------------|
|---------------------------------------o|-----------------------o|
|----------------------------------------|------------------------|
|------------------5---------------------|-3----------------------|
|------------------3-----3/6--5h6p5\3---o|-3--3--3--3------------o|
|--0-0-0-0-0-0-0---3---------------------|-1--1--1--1/4--3h4p3\1--|













Tap to rate this tab
# A B C D E F G H I J K L M N O P Q R S T U V W X Y Z