Song name
# A B C D E F G H I J K L M N O P Q R S T U V W X Y Z

Dimmu Borgir - Sacrilegious Scorn tab

----------------------------------------------------------------------------
			The Sacrilegious Scorn - Dimmu Borgir
----------------------------------------------------------------------------
Tabbed by:Derz
Email:phillip55@web.de

I think this tab isnīt the best but its a start.

Tuning:Standard

Do a Pickslide on the E-String at the beginning!

Riff1:x5
e|-------------------------------------------------------------------------|
B|-------------------------------------------------------------------------|
G|-------------------------------------------------------------------------|
D|----66-55---66-55---66-55---666-555--------------------------------------|
A|-44------44------44-------44-------3-------------------------------------|
E|-------------------------------------------------------------------------|

Riff2:the part when vortex sings clean.x1
e|-------------------------------------------------------------------------|
B|-------------------------------------------------------------------------|
G|-------------------------------------------------------------------------|
D|--------------------------------------5555-5-5555-5----------------------|
A|-777777-7-777777-7-777777-7-777777-7--3333-3-3333-3-3333-3---------------|
E|-555555-5-555555-5-555555-5-555555-5----------------1111-1-x2------------|

e|------------------------------------|
B|------------------------------------|
G|------------------------------------|
D|------------5-5555555---------------|
A|-7-7777777--3-3333333-3-3333333-----|
E|-5-5555555------------1-1111111-x2--|

Riff1:x5

Keyboard.......

Guit1-Riff3:x2
e|------------------------------------------------------------------------|
B|------------------------------------------------------------------------|
G|------------------------------------------------------------------------|
D|------------------------------------------------------------------------|
A|-2-5-4--2-5-2524--------------------------------------------------------|
E|-0-3-2--0-3-0302--------------------------------------------------------|

Guita2-Riff3:x2
e|-------------------------------------------------------------------------|
B|-------------------------------------------------------------------------|
G|-------------------------------------------------------------------------|
D|-------------------------------------------------------------------------|
A|-------------2-----------------------------------------------------------|
E|-00000-x6----0-----------------------------------------------------------|

Riff4:this is very hard to hear so dont cry if its wrong!But i its right!
dont know how often
e|-------------------------------------------------------------------------|
B|-------------------------------------------------------------------------|
G|-------------------------------------------------------------------------|
D|-----6666-5555-6666-8888-6666----6666-5555-6666-8888-9999----------------|
A|-4444------------------------4444----------------------------------------|
E|-------------------------------------------------------------------------|

e|-------------------------------------------------------------------------|
B|-------------------------------------------------------------------------|
G|-------------------------------------------------------------------------|
D|-----6666-5555-6666-8888-6666--5555-6666-8888-9999-----------------------|
A|-4444--------------------------------------------------------------------|
E|-------------------------------------------------------------------------|

Riff5 and Solo Rhytm:play during solo
e|-------------------------------------------------------------------------|
B|-------------------------------------------------------------------------|
G|-------------------------------------------------------------------------|
D|-------------------5-6-8-------------------------------------------------|
A|-3-4-33-8-3-4-33-8-3-4-6-------------------------------------------------|
E|-------------------------------------------------------------------------|

Solo:i think its nearly right.give it a try.You tap this.
e|-------------------------------------------------------------------------|
B|-8h9h11-9h10h13-11h13h14-13h14h16-14h16h18-16h18h19-19p18p16-18p16p14----|
G|-------------------------------------------------------------------------|
D|-------------------------------------------------------------------------|
A|-------------------------------------------------------------------------|
E|-------------------------------------------------------------------------|

e|-------------------------------------------------------------------------|
B|-16p14p13-14p13p11-13p10p9-11p9p8----------------------------------------|
G|-------------------------------------------------------------------------|
D|-------------------------------------------------------------------------|
A|-------------------------------------------------------------------------|
E|-------------------------------------------------------------------------|

Riff1:x2

END!
Tap to rate this tab
 
# A B C D E F G H I J K L M N O P Q R S T U V W X Y Z