Song name
# A B C D E F G H I J K L M N O P Q R S T U V W X Y Z

Dimmu Borgir - The Sinister Awakening tab

---------------------------------------------------------------------------
		Dimmu Borgir - The Sinister Awakening
---------------------------------------------------------------------------
Tabbed by: Eisblut and Derz
Email: JoshuaWohlschlegel@gmx.de and phillip55@web.de

Tuning: Standard

Guitar 1 Riff 1: x4                                             Second Time
e|-------------------------------------------------------------|-----------|
B|-6------6----6--------------------6----6----6--------------5-|-10-9--10-7|
G|-7------7----7--------10----------7----7----7--------------6-|-11-10-11-8|
D|-7------7----7------8----8--------7----7----7--------------6-|-11-10-11-8|
A|-5------5----5-------------10-----5----5----5----12/7-10-8-4-|-9--8--9--6|
E|-------------------------------------------------10/5-8--6---|-----------|

Guitar 2 Riff 1: x2
e|-------------------------------------------------------------------------|
B|-------------------------------------------5-----------------------------|
G|-19^---------------------------------------6-----------------------------|
D|-------------------------------------------6-----------------------------|
A|---------------------------------12/7-10-8-4-----------------------------|
E|---10-10-10-10-10-10-10-10-10-x1-10/5-8--6---10-10-10-10-10-10-10-10-10--|

Guitar 2 Riff 1: x1 
e|-------------------------------------------------------------------------|
B|-------------------------------------------------------------------------|
G|-19-15-15-18-15-15-19-15-15-18-15-18-15-x2-19^---------------------------|
D|-------------------------------------------------------------------------|
A|-------------------------------------------------------------------------|
E|-------------------------------------------------------------------------|

Guitar 1 Riff 2: x1 
e|-------------------------------------------------------------------------|
B|-------------------------------------------------------------------------|
G|-------------------------------------------------------------------------|
D|-7-7-7-6-7-7-7-9------9-9-9-8-9-9-9-11---7-7-7-6-7-7-7-9-----------------|
A|-5-5-5-4-5-5-5-7--x2--7-7-7-6-7-7-7-9-x2-5-5-5-4-5-5-5-7--x2-------------|
E|-------------------------------------------------------------------------|

Guitar 2 Riff 2: x1
e|-------------------------------------------------------------------------|
B|-------------------------------------------------------------------------|
G|-------------------------------------------------------------------------|
D|-------------------------------------------------------------------------|
A|-555555555555555-x2--77777777777777777-x2--55555555555555-x2-------------|
E|-------------------------------------------------------------------------|

Guitar 1 Riff 3: x8
e|-------------------------------------------------------------------------|
B|-------------------------------------------------------------------------|
G|-------------------------------------------------------------------------|
D|-9-9-9--8----------------------------------------------------------------|
A|-7-7-7--6----------------------------------------------------------------|
E|-------------------------------------------------------------------------|

Guitar 2 Riff 3: x1
e|-------------------------------------------------------------------------|
B|-------------------------------------------------------------------------|
G|-------------------------------------------------------------------------|
D|-9-9-9--8----------------------------------------------------------------|
A|-7-7-7--6-x2--7-2-5-6-7-7-2-6-x6-----------------------------------------|
E|-------------------------------------------------------------------------|

Guitar 1 Riff 4: x8
e|-------------------------------------------------------------------------|
B|-------------------------------------------------------------------------|
G|-------------------------------------------------------------------------|
D|-------------------------------------------------------------------------|
A|-7777-6666-13-13-13-13---------------------------------------------------|
E|-------------------------------------------------------------------------|

Riff3:Both guitars!

Guitar 1 Riff 5: x4
e|-------------------------------------------------------------------------|
B|-------------------------------------------------------------------------|
G|-------------------------------------------------------------------------|
D|--7-7-7-6-7-7-7-9--------------------------------------------------------|
A|--5-5-5-4-5-5-5-7--------------------------------------------------------|
E|-------------------------------------------------------------------------|

Guitar 2 Riff 5: x1
e|-------------------------------------------------------------------------|
B|-------------------------------------------------------------------------|
G|-19-15-15-18-15-15-19-15-15-18-15-19-15-x2-------------------------------|
D|-------------------------------------------------------------------------|
A|-------------------------------------------------------------------------|
E|-------------------------------------------------------------------------|


Both Guitars Riff6:x4

e|-------------------------------------------------------------------------|
B|-------------------------------------------------------------------------|
G|-------------------------7-6-5-------------------------------------------|
D|-------------------------------------------------------------------------|
A|-9-10-9-5-9-12--9-10-9-5-------------------------------------------------|
E|-7-8--7-3-7-10--7-8--7-3-------------------------------------------------|

Both Guitars Riff7:x4

e|-------------------------------------------------------------------------|
B|-------------------------------------------------------------------------|
G|-------------------------------------------------------------------------|
D|-------------------------------------------------------------------------|
A|-9-9-9-9--10101010-9-9-9-9--5-5--12-12-12-12-----------------------------|
E|-7-7-7-7--8-8-8-8--7-7-7-7--3-3--10-10-10-10-----------------------------|
PM ....... ........ ........ ..... ...........

Riff6:x4
Riff3:Both guitars!

Guitar 1 Riff 7: Till the End
e|-------------------------------------------------------------------------|
B|-------------------------------------------------------------------------|
G|-------------------------------------------------------------------------|
D|-7-7-777-10-7-7-777-6-7-7-777-10-----------------------------------------|
A|-5-5-555-8--5-5-555-4-5-5-555-8---Then-Keyboard--------------------------|
E|-------------------------------------------------------------------------|


| /  slide up
| \  slide down
| h  hammer-on
| p  pull-off
| ~  vibrato
| +  harmonic
| x  Mute note
===============================================================================
Tap to rate this tab
# A B C D E F G H I J K L M N O P Q R S T U V W X Y Z