Song name
# A B C D E F G H I J K L M N O P Q R S T U V W X Y Z

Dimmu Borgir - The Invaluable Darkness tab

--------------------------------------------------------------------------
                  The Invaluable Darkness - Dimmu Borgir
--------------------------------------------------------------------------
Tabbed by:Derz
Email:phillip55@web.de

Tuning:Standard

Riff1:x4
e|---------------------------------------------------------------|
B|---------------------------------------------------------------|
G|---------------------------------------------------------------|
D|-4-6-4-5--4-6-4-5-8--------------------------------------------|
A|-2-4-2-3--2-4-2-3-6--------------------------------------------|
E|---------------------------------------------------------------|

Fill1:x1
e|----------------------------------------|
B|----------------------------------------|
G|----------------------------------------|
D|----------------------------------------|
A|-3333-2222-3333-6666--------------------|
E|----------------------------------------|

Riff2:x2
e|---------------------------------------------------------------|
B|---------------------------------------------------------------|
G|---------------------------------------------------------------|
D|-5-555-4-8-----------------------------------------------------|
A|-3-333-2-6-x3-2222-1111-2222-6666-2222-1111-2222-8888----------|
E|---------------------------------------------------------------|
Mercy is not true,all your sins are next to mine.

Guitar1-Riff3:x4
e|---------------------------------------------------------------|
B|---------------------------------------------------------------|
G|---------------------------------------------------------------|
D|-555--555-4-8-8-5----------------------------------------------|
A|-333--333-2-6-6-3-x2-3333-2222-3333-6666-----------------------|
E|---------------------------------------------------------------|

Guitar2-Riff3:comes in after guitar 1 has played riff3 second times!x4
e|--------6-5-4--------------------------------------------------|
B|---------------------------------------------------------------|
G|---------------------------------------------------------------|
D|-5555---------555-4-8-8-5--------------------------------------|
A|-3333---------333-2-6-6-3-x2-----------------------------------|
E|---------------------------------------------------------------|

Riff2:x4

Riff4: Clean Part of Vortex!x8
e|---------------------------------------------------------------|
B|---------------------------------------------------------------|
G|------5------5---5---------------------------------------------|
D|------3------3---3---------------------------------------------|
A|-33333--33333-333----------------------------------------------|
E|---------------------------------------------------------------|

Riff5:x2
e|----------------------------------------------------------------------|
B|----------------------------------------------------------------------|
G|----------------------------------------------------------------------|
D|----------------------------------------------------------------------|
A|-333333-15151515-14141414-15151515-17171717-111111-6666-5555-3333-2222|
E|----------------------------------------------------------------------|

Git1-Riff6:x2
e|---------------------------------------------------------------|
B|---------------------------------------------------------------|
G|---------------------------------------------------------------|
D|-5-5------8-8--------------------------------------------------|
A|-3-3-5-5--6-6-8-8----------------------------------------------|
E|-----3-3------6-6----------------------------------------------|

Git2-Riff6:x2
e|---------------------------------------------------------------|
B|---------------------------------------------------------------|
G|---------------------------------------------------------------|
D|---------------------------------------------------------------|
A|-333333-------666666-------------------------------------------|
E|--------333333-------666666------------------------------------|


Guitar1-Riff7:x14
e|---------------------------------------------------------------|
B|---------------------------------------------------------------|
G|-7-6-5-7-6-5---------------------------------------------------|
D|---------------------------------------------------------------|
A|--------------5-11---------------------------------------------|
E|--------------3-9----------------------------------------------|

Guitar2-Riff7:x7
e|---------------------------------------------------------------|
B|---------------------------------------------------------------|
G|---------------------------------------------------------------|
D|---------------------------------------------------------------|
A|-8-8-8-8-5-11-8-8-8-8-11-5-------------------------------------|
E|-6-6-6-6-3-9--6-6-6-6-9--3-------------------------------------|
Riff3:x4
Riff2:x6

Play at the 2nd time at riff2:x1
e|-------------------------------------------------------------------------|
B|-8-7-6-9-8-6-10-9-8-11-10-9-12-11-10-13-12-11-14-13-12--15-14-13-16-15-14|
G|-------------------------------------------------------------------------|
D|-------------------------------------------------------------------------|
A|-------------------------------------------------------------------------|
E|-------------------------------------------------------------------------|



| /  slide up
| \  slide down
| h  hammer-on
| p  pull-off
| ~  vibrato
| +  harmonic
| x  Mute note
============================================================================
Tap to rate this tab
 
# A B C D E F G H I J K L M N O P Q R S T U V W X Y Z