Song name
# A B C D E F G H I J K L M N O P Q R S T U V W X Y Z

Dingees - You In My Heart tab

Song: You in My Heart
Artist: The Dingees
Album: Sundown to Midnight
Tabbed By: Caleb M. (caleb_m2000@hotmail.com)

Intro/Outro
                   x2         x2
E -----------------|-----------|
B -----------------|-----------|
G -----------------|-----------|
D ---0-2-2-2-2h3p2-|-----------|
A -3---------------|-3-2-------|
E -----------------|-----3-3-3-|

                   x2       x2
E -----------------|-------3-|
B -----------------|-------3-|
G -----------------|-------0-|
D ---0-2-2-2-2h3p2-|-------0-|
A -3---------------|-3-2---2-|
E -----------------|-----3-3-|

C                               
Hard times are callin' for hard hearts
        Em
Thru me in with prestige, turn me out an upstart
     C
While backbiters encamped around me
                   Em
What thought spilt out in their mind that turn us into enemies

F                 G            C
All I got left to hold onto is you in my heart
F                 G            C
All I got left to hold onto is you in my heart
F                      G
The more I'm left with nothing but you
Em                     F
The more I see I gotta hold onto
F                 G            C
All I got left to hold onto is you

C                                   Em               
They conspire all day they watch my steps
                                     C
But I will not strike my foot upon a stone
                             Em
I've been lifted high upon a rock

Where out of range of hard I can carry on
Tap to rate this tab
# A B C D E F G H I J K L M N O P Q R S T U V W X Y Z