Song name
# A B C D E F G H I J K L M N O P Q R S T U V W X Y Z

Dinosaur Jr - Been There All The Time tab

-------------------------------------------------------------------------------
			Been There All The Time – Dinosaur Jr.
-------------------------------------------------------------------------------
Tabbed by:Johan Carøe		
Email:Soyasoyzz@hotmail.com

Tuning: normal

Intro
Just keep struming, listen to the track for timing

       A          D         A        D       B       D     B     D
e|----5-5-------------------5------------------------------------------------|
B|----5-5---------7---------5--------7---------------7-----------7-----------|
G|----6-6---------7---------6--------7-------4-------7-----4-----7-----------|
D|----7-7---------7---------7--------7-------4-------7-----4-----7-----------|
A|----7-7---------5---------7--------5-------2-------5-----2-----5-----------|
E|----5-5-------------------5------------------------------------------------|

Verse

        A          D         D              
e|-----5-5-------------------------------------------------------------------|
B|-----5-5--------7-7-------7-7-7--------------------------------------------|
G|-----6-6--------7-7-----6-7-7-7-----6-------------------------------------|
D|-----7-7--------7-7-7/9---7-7-7-7/9----------------------------------------|
A|-----7-7--------5-5-------5-5-5--------------------------------------------|
E|-----5-5-------------------------------------------------------------------|

Repeat two times

e|---------------------------------------------------------------------------|
B|----7-6--------------------------------------------------------------------|
G|----7-6----4-4-4-4-4---2-2-4b—4b4p2---2---2-2-4b—4b4p2---2-----------------|
D|----7-6----4-4-4-4-4---0-0-0---0----4-0---0-0-0--0-----4-0-----------------|
A|----5-4----2-2-2-2-2-------------------------------------------------------|
E|---------------------------------------------------------------------------|

Chorus is just like the intro




| /  slide up
| \  slide down
| h  hammer-on
| p  pull-off
| ~  vibrato
| +  harmonic
| x  Mute note
===============================================================================
Tap to rate this tab
# A B C D E F G H I J K L M N O P Q R S T U V W X Y Z