Guitaretab - guitar tabs
Song name
# A B C D E F G H I J K L M N O P Q R S T U V W X Y Z

Dinosaur Jr - Pick Me Up tab

----------------------------------------------------------------------------
			     Pick Me Up - Dinosaur Jr
----------------------------------------------------------------------------
From the new LP - Beyond

Tabbed by: Hairy Cornflake
Email: dude1874@hotmail.co.uk

(Don't quote me on the lyrics!?!)

**** Capo 5th Fret ****
(everything relative to the capo)

INTRO: x2
E|----------------------------------|
B|--------4--7----------------4--7--|
G|--------4--7----------------4--7--|
D|--------4--7-----0h2p0h2/5--4--7--|
A|-2-2/5~-2--5---2------------2--5--|
E|-0-------------0------------------|

VERSE: (If you know the song-you'll know the rhythmn)
E|-------------------------|
B|--1-111-xx--11-----------|
G|--2-202-xx--22-----------|
D|--2-202-xx--33-----------|
A|--0-000-xx--33-----------|
E|--------xx--11-----------|

Later on
I was tired
Not too strong
Not expired

E|-------------------------|
B|--1-xxxxxx--11-----------|
G|--2-xxxxxx--22-----------|
D|--2-xxxxxx--33-----------|
A|--0-xxxxxx--33-----------|
E|----xxxxxx--11-----------|

Iíve been holding on so long
Cannot get there, I was wrong
Iíve been stumbling, Iíve been weak
Turn your head Iíll disappear


CHORUS:
E|----------------------------------|
B|-11-------33----------111101------|
G|-00-------44----------222202------|
D|-22----5--55-7b8r7-5--222202------|
A|-33-5/7---55----------000000------|
E|----------33----------------------|

But Iím gone...
 
E|-------------------------------------------------------------------------|
B|-11-------33----------1-101-1-0-1--1-101-1-0-1--1-101-1-0-1--1-101-1-0-1-|
G|-00-------44----------2-200--------2-200--------2-200--------2-200-------|
D|-22----5--55-7b8r7-5--2-203--------2-203--------2-203--------2-203-------|
A|-33-5/7---55----------0-003--------0-003--------0-003--------0-003-------|
E|----------33-------------------------------------------------------------|

All along...

[ Tab from: http://www.guitaretab.com/d/dinosaur-jr/155725.html ]
VERSE: (as above)
Pick me up
Help me out
Iím in luck
Youíre still smiling

Iíve been waisting all these years
Still youíd have them disappear
Iíve been lifted, Iíve been wronged
And I donít think I belong

CHORUS: (as above)
Am I wrong
All along


BRIDGE:
E|---------------------|      *(Above these chords)
B|-1----1----1----1----|     B|--1~~~~
G|-0----2----0----2----|     G|-------2~~~~0~~~~2~~~~~
D|-2----3----2----3----| (x2)
A|-3----3----0----3----|
E|------1---------1----|

Hold on... Hold on... Hold on... Hold on...

E|---------------------|
B|---1----1----1----1--|
G|---2----2----2----2--|
D|---2----2----2----3--|
A|---0----3----0----3--|
E|--------1---------1--|

Hold On...     Hold on...

     *
E|-------------------------------------------|
B|---1----1----1----1----1----1----1----1----|
G|---2----2----0----2----2----2----2----2----|  (x2)
D|---2----2----2----3----2----2----2----3----|
A|---0----3----0----3----0----3----0----3----|
E|--------1---------1---------1---------1----|

Hold on...     Hold on... Hold on... Hold on...

E|-------------------------------------------------------|
B|----1-101-1-0-1--1-101-1-0-1--1-101-1-0-1--1-101-1-0-1-|
G|----2-200--------2-200--------2-200--------2-200-------|
D|----2-203--------2-203--------2-203--------2-203-------|
A|----0-003--------0-003--------0-003--------0-003-------|
E|-------------------------------------------------------|


OUTRO:
E|-------3--------3--------3--33---------------|
B|-11-0h1---11-0h1---11-0h1---00-01310---------|
G|-22-------22-------00-------00------20----0--|
D|-22-------33-------22-------00--------00h2---|
A|-00-------33-------33-------22---------------|
E|----------11----------------33---------------|

Can we walk
Will I squirm
Could I reach you
All the while

I canít stop
Itís always been
I feel useless
You just smile

Can I scream
Am I heard
I still miss you
I still burn

Can I learn
Do your will
Know I need to
Havenít learned

Solo......................................

And so it goes...
Related for Pick Me Up tab