Song name
# A B C D E F G H I J K L M N O P Q R S T U V W X Y Z

Dinosaur Jr - The Post tab

The tab was taken from a Dinosaur Jr fan site so no credit is taken for it by me.
Anyway I'd appreciate it if you'd rate or comment. Thanks!!

Bass Part:
G:--------------------------------|
D:-------------------0------------|
A:--0--2------------------0--2----|
E:--------0----2--2-------------0-|



Chorus Part:
e:-------------------------------------5-7-5-7/9-7----------|
B:----------------------------------------------------------|
G:--7----7-------------------6---9-6-----------------7--7---|
D:--7----7----9----9------/7---7-----7---------------7--7---|
A:--5----5----9----9---------------------------------5--5---|
E:------------7----7----------------------------------------|
                                                                              
e:----------------------------------------------------------|
B:----------------------------------------------------------|
G:--7----7-------------------6---9-6------------------------|
D:--7----7----9----9------/7---7-----9-7-5-4^---------------|
A:--5----5----9----9----------------------------------------|
E:------------7----7----------------------------------------|
                                                                              


Bridge:
e:----------------------------------------------------------|
B:---------------------------------------------------0h2----|
G:--------2^0-------------------------2^0--5--4--0h2--------|
D:--5--5-------3--3-3--x-x-3----5--5-------5--4-------------|
A:--5--5-------3--3-3--x-x-3----5--5-------3--2-------------|
E:--3--3-------1--0-1--x-x-1----3--3------------------------|





Verse 1:(Guitar does the feedback thing over the bass part)

(Bass Part X 3)               G F# D
Eyed It , Dried It, Untied It

(Bass Part X 3)               G F# D
Traced It, Paste It, Erased It
                                                                              
(Bass Part X 3)                     G F# D
Chilled It, Spilled It, Refilled It



Chorus:

(Play chorus part twice over lyrics)

She's my post to lean on
And I just cut her down
So I'm bound to land on something
Hopefully a girl will come between me and the ground


Bridge:

(Play bridge part twice before solo, then solo over bridge part several times.)


(Repeat Verse 1)

(Repeat Chorus twice, end on D)

Tap to rate this tab
# A B C D E F G H I J K L M N O P Q R S T U V W X Y Z