Song name
# A B C D E F G H I J K L M N O P Q R S T U V W X Y Z

Dinosaur Jr - Sideways tab

-------------------------------------------------------------------------------
			     Sideways - Dinosaur Jr.
-------------------------------------------------------------------------------
Tabbed by: Jeff


finger-picked acoustic guitar:

e|-----------0--4-0---------0----4-0----------0----4-0---------0-----4-0-----|
B|---------------------------------------------------------------------------|
G|------6--------------6-----------------6----------------6------------------|
D|--------6----------6---6----(6)------6---6----(6)-----6---6----(6)---------|
A|--0------------------------------------------------------------------------|
E|---------------------------------------------------------------------------|

e|---0--0---0--0----0--0---0--0----------------------------------------------|
B|---5--7---5--5----5--7---5--5----------------------------------------------|
G|---7--7---7--7----7--7---7--7---etc----------------------------------------|
D|---7--7---7--7----7--7---7--7----------------------------------------------|
A|---------------------------------------------------------------------------|
E|---------------------------------------------------------------------------|

D
Flyin' sideways cause
  A
I can't rely on me to
E
Get you there

e|----------------------------------|
B|-10---10-------10----10-----------|
G|----------------------------------|
D|-7----7--------7-----7------------|
A|----------7---------------7-------|
E|----------------------------------|

D
Only one way
        A
I could tell you not to stall
E
Antique is rare

e|----------------------------------|
B|-10---10-------10----10-----------|
G|----------------------------------|
D|-7----7--------7-----7------------|
A|----------7---------------7-------|
E|----------------------------------|

(return to intro)

D
Flyin' sideways
           A
Cause it's only way to get to
E
Where you're going

e|----------------------------------|
B|-10---10-------10----10-----------|
G|----------------------------------|
D|-7----7--------7-----7------------|
A|----------7---------------7-------|
E|----------------------------------|

D
It's the same day
      A
But I feel it callin' me
E
Instead i've flown

e|----------------------------------|
B|-10---10-------10----10-----------|
G|----------------------------------|
D|-7----7--------7-----7------------|
A|----------7---------------7-------|
E|----------------------------------|

D
Flyin' sideways cause
  A
I can't rely on me to
E
Get you there

e|----------------------------------|
B|-10---10-------10----10-----------|
G|----------------------------------|
D|-7----7--------7-----7------------|
A|----------7---------------7-------|
E|----------------------------------|

D
Only one way
        A
I could tell you not to stall
E
Antique is rare


e|---------------------------------------------------------------------------|
B|---------------------------------------------------------------------------|
G|---------------------------------------------------------------------------|
D|--0------------------7-9-7---9^9^9--7---7----------------------------------|
A|----4-2--4-4/7--7/9-------------------9-----------------------------------|
E|---------------------------------------------------------------------------|

(intro w/ drums)

| /  slide up
| \  slide down
| h  hammer-on
| p  pull-off
| ~  vibrato
| +  harmonic
| x  Mute note
===============================================================================
Tap to rate this tab
# A B C D E F G H I J K L M N O P Q R S T U V W X Y Z