Guitaretab - guitar tabs
Song name
# A B C D E F G H I J K L M N O P Q R S T U V W X Y Z

Dinosaur Jr - Set Us Free chords

Highlighted       Show chord diagrams
Here is how I play this track.

From J Mascis + The Fog album - Free So Free

*** CAPO 9th fret ***
(everything relative to Capo)

Intro and Chorus:
    G              Cmaj7    Cadd9
e|--3~--------------0-----3--0------|
B|--0~--0h1-0---0---0-----0--3------|
G|--0~-------0h2-0--0-----0--0------|
D|--0~--------------2-----2--2------|
A|--2~--------------3-----3--3------|
E|--3~------------------------------|

Verse:                            optional wee fill
  Em     D    Cmaj7  Cadd9        /
e|-0-----2------0----0-----------/--|
B|-0-----3------0----3-0-3/5-0-3p0-|
G|-0-----2------0----0-------------|
D|-2-----0------2----2-------------|
A|-2-----x------3----3-------------|
E|-0-----x-------------------------|

Em       D                  Cmaj7
Trace my life right up till now
(Cadd9)
Then I hurt your style
Em    D               Cmaj7
Ran around till I ran out

Em    D             Cmaj7 
Gotta move Iím goin down
(Cadd9)
Itís a painful sound
Em      D              Cmaj7
Lots of room just feel around

Chorus:
    G              Cmaj7    Cadd9
e|--3~--------------0-----3--0------|
B|--0~--0h1-0---0---0-----0--3------|
G|--0~-------0h2-0--0-----0--0------|
D|--0~--------------2-----2--2------|
A|--2~--------------3-----3--3------|
E|--3~------------------------------|
[ Tab from: http://www.guitaretab.com/d/dinosaur-jr/184397.html ]
Set us free this time
Set us free this time
Set us free this time
Set us free this time
Set us free this time
Set us free this time
Set us free this time
Set us free this time

Verse:
Em     D                   Cmaj7   (Cadd9)
What a difference your love makes, thankful mine always
Em          D           Cmaj7
Cranked the fire on the stage
Em      D             Cmaj7        (Cadd9)
Help me not be such a waste, still crumble it away
Em      D               Cmaj7
Help me keep my present state

Bridge:
      G      D          Cmaj7    
And it all      comes together now
        G        D      Cmaj7
All you destroyed
        G              D             Cmaj7
On your own, back them up, count the pieces now
              G         D          Cmaj7
Youíve got no choice

SOLO (over bridge progression)

Bridge 2:
          G                  Em
You canít run and scream, be tough
        G            Em
Time to focus on the war
C          D 
Uma got me through it
         C           D
It ainít easy we all knew it

         G              Em
But itís all we came to do
          G               Em
Lets bend down and follow you
          C                  D
cause you know theirs no use fightin
       C                  D
Every ways a life thats frightening, look down

CHORUS:
Set us free this time
Set us free this this 
Set us free this time
Set us free this time.....
Related for Set Us Free chords