Song name
# A B C D E F G H I J K L M N O P Q R S T U V W X Y Z

Dinosaur Jr - Over It tab

artist: dinosaur jr
song: over it
tuning: standard
tabbed by: batesyy

/intro

|-----------------------8---|
|--11b-8b-11b-8b-11b-8b---8b|
|---------------------------| x2
|---------------------------|
|---------------------------|
|---------------------------|

|----------------|
|--11b-12b-8b----|
|----------------| x4
|----------------|
|----------------|
|----------------|


/verse

|----------------|
|----------------|
|----------------| x2
|--10---7--------|
|--8----5--8-----| 
|----------6-----|

/prechorus

|--------------------|
|--------------------|
|--------------------|
|--------------------|
|--10--8--10--8-10---|
|--8---6--8---6-8----|

/chorus

|-----------------|
|-----------------|
|-----------------|
|-10--12----------|
|-8---10--8--10---|
|---------6--8----|

/bridge

|------------------|
|------------------|
|------------------| play c back into verse
|---------10-10-10-|
|-8-x-8---8--8--8--|
|-6-x-6------------|

/outro

|----------------------------------|
|-11b-8b-11b-8b---11b-8b-14b-11b-8b|
|----------------------------------| over chorus
|----------------------------------|
|----------------------------------|
|----------------------------------|

ending with the bridge and on the f.
Tap to rate this tab
# A B C D E F G H I J K L M N O P Q R S T U V W X Y Z