Song name
# A B C D E F G H I J K L M N O P Q R S T U V W X Y Z

Dinosaur Jr - Plans tab

artist: dinosaur jr
song: plans
tabbed by: batesyy

this is only the basic chords, none of the arpeggio stuff tabbed.
plus only one of the short solos tabbed. i hope you can improvise :)

/intro

|----------|
|----------|
|----------|
|----------|
|-6~---8~--|
|-4~---6~--|

/verse

|--------------------------|
|--------------------------| x3
|--------------------------|
|-----------------8------8-|then:
|-10------6-------6------5-|
|-8-------4----------------|

|----------------------------------------|
|----------------------------------------|
|----------------------------------------|
|-----------------8----------8-7---8-7---|
|-10------6-------6-------8------8-----8-|
|-8-------4---------------6--------------|

/chorus

|----------------------------|
|----------------------------|
|----------------------------|
|----------------5-8---------|
|-3-------6------6-6-------8-|
|-1-------4------4---------6-|

/first solo

|--------------------------------------------------------------15-16-15----|
|-------------------------------------------11-----11--17b~-17---------17b-|
|-10b~---10b~-8h10p8s7------------10b~--10b----10b-------------------------|
|---------------------------8h10-------------------------------------------|
|----------------------8h10------------------------------------------------|
|--------------------------------------------------------------------------|

/bridge

|------------------|
|------------------|
|------------------| palm mute c
|-5----------------| x2 then:
|-3------3------6--|
|--------1------4--|

|-----------|
|-----------|
|-----------| then back to intro
|--8----10--|
|--6----8---|
|-----------|
Tap to rate this tab
# A B C D E F G H I J K L M N O P Q R S T U V W X Y Z