Guitaretab - guitar tabs
Song name
# A B C D E F G H I J K L M N O P Q R S T U V W X Y Z

Dinosaur Jr - Pond Song tab

                                     Pond Song by Dinosaur Jr.

Tabbed By: TheMan(Jesus)
Email: pimpsupwhoesdown27@yahoo.com

Tuning: Standard
-----------------|
--3----3-3-3-3---|
---0-0------0--0-|
-----------------| X2
-----------------|
-3---------------|

Verse:

-------------------- -3p2-----------------------------------|
--3-3-3-3-1-0-1/5-3- -----5-3-------------------------------|
--0-0-0-0-0-0-0-0-0- then play a little fill like -----0-0--|
-------------------- ---------------------------------------|
-------------------- ---------------------------------------|
-3------------------ ---------------------------------------|

----------------------3-3-2-0-|
--3---3-3-1-0-0h1-0---3-3-----|
---0-0------------------0-0---| Repeat this all twice
------------------------------|
------------------------------|
-3----------------------------|
[ Tab from: http://www.guitaretab.com/d/dinosaur-jr/192158.html ]
chorus:
-|-0--0---0--0--00/00/00----------|
-|-1--1---3--3--11/33/11----------|
-|-2--0---4--0--00/00/00----------|
-|-3--2---5--4--22/44/22----------|
-|-3--3---5--5--33/55/33----------|
-|-1------3-----------------------|
Solo

------------------------ ----------------------|
------------------------ ----------------------|
-11-11-14-12-11-7-2/4/2- -11-9-11-9-11-12-11-9-|
------------------------ ----------------------|
------------------------ ----------------------|
------------------------ ----------------------|

--------------------------- --------------------------|
--------------------------- ------12-10---------------|
-11-12-14-11-12-11-12-11-2- -12-11-----12-11-11h12-11-|
--------------------------- --------------------------|
--------------------------- --------------------------|
--------------------------- --------------------------|
Related for Pond Song tab
Advertisement will be closed in 10 seconds