Song name
# A B C D E F G H I J K L M N O P Q R S T U V W X Y Z

Dinosaur Jr - Creepies tab

-------------------------------------------------------------------------------
			     Creepies - Dinosaur Jr
-------------------------------------------------------------------------------
Tabbed by: Jeff

* an acoustic version of this showed up on the Guitarrorists compilation as "A Little 
Song" under J Mascis' name

main riff

e|--2--2-2-2--3--0--2--3-2---0--0-0-0--0-------------------------------------|
B|--3--3-3-3--3--3--3--3-3---3--3-3-3--3-------------------------------------|
G|---------------------------0--0-0-0--0-------------------------------------|
D|-----------------------------------------------0--2--0---------------------|
A|-----------------------------------------0--2------------------------------|
E|---------------------------------------------------------------------------|


| /  slide up
| \  slide down
| h  hammer-on
| p  pull-off
| ~  vibrato
| +  harmonic
| x  Mute note
===============================================================================
Tap to rate this tab
 
# A B C D E F G H I J K L M N O P Q R S T U V W X Y Z