Song name
# A B C D E F G H I J K L M N O P Q R S T U V W X Y Z

Dinosaur Jr - Ocean In The Way tab

-------------------------------------------------------------------------------
			     ocean in the way - dinosaur jr.
-------------------------------------------------------------------------------
Tabbed by:m. spears
Email:mrstraighty@yahoo.com

Tuning:standard
intro/chorus chordsD C G Cadd9 "na na na..."
e|-2-3-2-0-0-------3-------3------------------------------------------------------|
B|-3-------1-------3-------3------------------------------------------------------|
G|-2-------0-------0-------0------------------------------------------------------|
D|-0-------2-------0-------2------------------------------------------------------|
A|---------3-------2-------3------------------------------------------------------|
E|-----------------3--------------------------------------------------------------|
verse chords F C G"said there's an ocean and i'm in the way.."
e|-1-------0-------3--------------------------------------------------------------|
B|-1-------1-------3--------------------------------------------------------------|
G|-2-------0-------4--------------------------------------------------------------|
D|-3-------2-------5--------------------------------------------------------------|
A|-3-------3-------5--------------------------------------------------------------|
E|-1---------------3--------------------------------------------------------------|
1st bridge chords A C G Cadd9 "i've been out looking for somewhere... "
e|--------0-------3------3---------------------------------------------------------|
B|-2------1-------3------3---------------------------------------------------------|
G|-2------0-------0------0---------------------------------------------------------|
D|-2------2-------0------2---------------------------------------------------------|
A|-0------3-------2------3---------------------------------------------------------|
E|----------------3----------------------------------------------------------------|
2nd bridge/solo chords  Cadd9(open high e) G Cadd9 "come on down..."
e|-0-0-----3---5--3---------3-------3------------------------------------------------|
B|-3--3----0----------------3-------3------------------------------------------------|
G|-0---0---0----------4x----0-------0------------------------------------------------|
D|-2-------0----------------0-------2------------------------------------------------|
A|-3-------2----------------2-------3------------------------------------------------|
E|---------3----------------3--------------------------------------------------------|

that's about it.
Tap to rate this tab
# A B C D E F G H I J K L M N O P Q R S T U V W X Y Z