Song name
# A B C D E F G H I J K L M N O P Q R S T U V W X Y Z

Dinosaur Jr - Feel The Pain tab

hey! here is another 100% correct tab!one of the most awsome songs ever
...........FEEL THE PAIN!!!if you want to play this alone you use a capo on the third 
if your with a band then you just have one guitar
playing leads and the other playing the capo notes,which is the way it is on the record.

actual frets!

    5x
|--------|--------------------------------------------------|
|--------|--------------------------------------------------|
|------12|--------------------------------------------------|
|---14---|--------------------------------------------------|
|-3------|3-------------------------------------------------|
|--------|--13-13-13-13-13-13-13-13-13-13-13-13-13-13-13-13-|

now if you have two guitars here is guitar on and two.

    guitar 1
   5x
|------|---------------------------------|
|----8-|---------------------------------|
|---9--|---------------------------------|
|------|---------------------------------|
|------|--8-8-8-8-8-8-8-8-8-8-8-8-8-8-8-8|
|-8----|8--------------------------------|

   5x   guitar 2
|------|---------------------------------|
|------|---------------------------------|
|------|---------------------------------|
|------|---------------------------------|
|------|--8-8-8-8-8-8-8-8-8-8-8-8-8-8-8-8|
|------|---------------------------------|

   then(for only one guitar)                                   fill
|-----------------------------------------------------------|-12---12--|
|-------------------------13--13--13--13----13-13-----------|-15b--15b-|
|-------------------------12--14--14--12-12h14-12-------12--|----------|
|-12-14-14--12-12h14-12----3------------------------15------|----------|
|--3--3--3---3-----3--3-------------------------------------|----------|
|-----------------------------------------------------------|----------|

  then for two.
                     guitar 1                                 fill
|-----------------------------------------------------------|-12---12--|
|-------------------------13--13--13--13----13-13-----------|-15b--15b-|
|-------------------------12--14--14--12-12h14-12-------12--|----------|
|-12-14-14--12-12h14-12-----------------------------15------|----------|
|-----------------------------------------------------------|----------|
|-----------------------------------------------------------|----------|

then for the second guitar you just hit the 3rd fret where they were with one guitar.

here's the bridge.for one guitar you just play it.but with two guitars both play this figure.
 10x       4x  3x  3x  10x     5x                     4x 3x  3x  10x
|-5-|-----|-3-|-3-|-3-|-7-|---|-3-|-----------------|-3-|-3-|-3-|-7-|---|
|-6-|-----|-3-|-3-|-3-|-8-|---|-5-|-----------------|-3-|-3-|-3-|-8-|---|
|-7-|-----|-4-|-5-|-4-|-9-|---|-5-|-6---------------|-4-|-5-|-4-|-9-|---|
|-7-|-----|-5-|-5-|-5-|-9-|---|-3-|-7----------3-3-5|-5-|-5-|-5-|-9-|---|
|-5-|-----|-5-|-5-|-5-|-7-|---|-3-|-7----------3-3-3|-5-|-5-|-5-|-7-|---|
|-5-|-3--3|-5-|-5-|-5-|-7-|-3-|-3-|-5-5-5-5-5-53-3-3|-3-|-3-|-3-|-7-|3-3|

|-3--3-3-3-3--3--3--3---3--3--3--3--3--3--3-----------------|
|-3--3-3-3-3--3--3--3---3--3--5--5--5--5--5-----------------|
|-4--4-4-4-5--5--5--4---4--4--5--5--5--5--5-6---------------|
|-5--5-5-5-5--5--5--5---5--5--3--3--3--3--3-7---------------|
|-5--5-5-5-5--5--5--5---5--5--3--3--3--3--3-7---------------|
|-3--3-3-3-3--3--3--3---3--3--3--3--3--3--3-5--5-5-5-5-5-5-5|

NOW HERE'S THE SOLO,it's pretty easy if you work on it a lot.

|------------------------------5-8-5-------------------------------5b----|
|----------------6-5---6/8-----5----8-5---------------5------------8b--7-|
|-----5-7br---------7-5----------------7------(7)b-------7brp5---5-----9b|
|-5/7----------------------------------------------------------7---------|
|------------------------------------------------------------------------|
|------------------------------------------------------------------------|


you can't really hear this.

|---------------------------|-------------------------12-13-12-13/15-13--|
|---------------------------|------13-15-13-15-13-15b--------------------|
|--------------8b--8b-------|12h14---------------------------------------|
|8-10-10-8------------------|--------------------------------------------|
|----------10---------------|--------------------------------------------|
|------------------------17\|--------------------------------------------|

|12h13p12------------------------------------------------------------------|
|---------15-12-15--13h15p13--13-------------------------------------------|
|---------------------------14---14--12br--12~-12~-12~-12~-12~-12~-12~12~12|
|--------------------------------------------------------------------------|
|--------------------------------------------------------------------------|
|--------------------------------------------------------------------------|

|-----------------------------------8-8--8-10p8---8-10-10/13-12-----8-10p8|
|----------------5-6-5h6p5----6/10-----10-------10--------------6/10------|
|---5h7p5---5-7b-----------7----------------------------------------------|
|5h7------7---------------------------------------------------------------|
|-------------------------------------------------------------------------|
|-------------------------------------------------------------------------|

|10--8\7-8-7---------------------------------------------------------------|
|-----------8--8/10--8--10/12-10-12/13-13-13/15-13-15-15/17--x--17h18-17-18|
|--------------------------------------------------------------------------|
|--------------------------------------------------------------------------|
|--------------------------------------------------------------------------|
|--------------------------------------------------------------------------|

|--17--17-20p17h20p17h20p17h20p17h20p17h20p17h20p17--------------------20br|
|20--20----------------------------------------------20b-20-17h20p17-------|
|--------------------------------------------------------------------19----|
|--------------------------------------------------------------------------|
|--------------------------------------------------------------------------|
|--------------------------------------------------------------------------|

well there it is!check out my other tabs.gigan by buckethead,time machine
by joe satriani and julia dream by pink floyd.can someone please PLEASE!
TAB SUPER HUMAN BY BUCKETHEAD,IT IS LIKE ONE OF MY FAVORITE SONGS EVER!!!
Tap to rate this tab
 
# A B C D E F G H I J K L M N O P Q R S T U V W X Y Z