Song name
# A B C D E F G H I J K L M N O P Q R S T U V W X Y Z

Dinosaur Jr - Been There All The Time tab

====
Info
====

Song: Been There All the Time
Band: Dinosaur Jr.

Tabbed by: Maarten Lenoir
Email: maarten.lenoir@pandora.be

Tuning: EADGBA


Note: This is my first ASCII-tab, so forgive me if it isn't really the standard way of
it. I'm not really experienced in playings songs by ear, so it took some time for me to
this out.
This is the way I generally play it (and it sounds okay to me), so don't expect 100%
to the studio-version of the song. I couldn't completely figure out the solos by ear so far
a big part of the first one and pretty much nothing of the second/final one), so if you 
help me out with these, much appreciated.


======
Legend
======

x    - dead note
(n)  - ghost note
h    - hammer on
p    - pull off
b    - bend
br   - bend-release
pb   - prebend
PM   - palm mute

=========
Section 1
=========

    						       x2
|-------------------------|-----------------------------|
|----------------------3--|-(3)-3--3------------0-------|
|---2----2----2--2--0--2--|-(2)-2--4--2--4br----2--0----|
|---2----2----2--2--0--0--|-----x-----0------------0----|
|---0---------------0-----|------------------------0----|
|-------------------------|-----------------------------|


       PM PM       PM
-------------------------|----------------------------------|
----------------------3--|-(3)-3---3--------------3---------|
--4----------4--4-----2--|-(2)-4b--4pb--4pb--4pb--4p--0--0--|
--4----------4--4--------|-------------------------------0--|
--2----2--2--2--2--2-----|-------------------------------0--|
-------0--0--------0-----|----------------------------------|


       PM PM       PM
-------------------------|-----------------------------|
----------------------3--|-(3)-------------------------|
--4----------4--4-----2--|-(2)-2--4p--2-------------0--|
--4----------4--4--------|-----0---------4p--2p--0--0--|
--2----2--2--2--2--2-----|-----------------------------|
-------0--0--------0-----|-----------------------------|


=========
Section 2
=========

 											    x3
|-----------------------|-------------------|------------------------|-----------------------|
|-----------------------|-------------------|--3----3--3----3--------|--3----3--3----3-------|
|--2----2--2------------|-------------------|--2----2--2----2h4p2----|--2----2--2----2h4p2---|
|--2----2--2------------|-------------------|-------x--x-------------|-------x---------------|
|--0--------------------|-------------------|------------------------|-----------------------|
|-----------------------|-------------------|------------------------|-----------------------|


|-----------------------|-------------------|------------------------|-----------------------|
|-----------------------|-------------------|--3----3--3----3--------|--3----3--3------------|
|--2----2--2------------|-------------------|--2----2--2----2h4p2----|--2----2--2------------|
|--2----2--2------------|-------------------|-------x--x-------------|-------x--x------------|
|--0--------------------|-------------------|------------------------|---------------5--4----|
|-----------------------|-------------------|------------------------|-----------------------|


|------------------------|----------------------|---------------------------|--------------------|
|------------------------|----------------------|--3--3--------3------------|--------------------|
|--4----4----x--x--x--4--|--x--4--x--4----4--4--|--2--2--4--2--4br---2h4p2--|----2--4h2---------0|
|--4----4----x--x--x--4--|--x--4--x--4----4--4--|---------------------------|----0-------4p2p0--0|
|-------2----x--x--x-----|--x--2--x--2----2--2--|---------------------------|--------------------|
|------------------------|----------------------|---------------------------|--------------------|


=========
Section 3
=========

 	   PM PM			   x3
|-----------------------|------2----0-------|
|--------------------3--|------0----0-------|
|--------------------2--|-------------------|
|--4-4-4----------0-----|-------------------|
|--4-4-4----2--2--0-----|-------------------|
|--2p0h2----0--0--------|-------------------|


|--------------------------|--------------------------|--------------------------|
|--------------------------|-----------------------0--|--3--3--3--3--3--3--3--3--|
|--4--4--4--4--4--4--4--4--|--4--4--4--4--4--4--4--0--|--2--2--2--2--2--2--2--2--|
|--4--4--4--4--4--4--4--4--|--4--4--4--4--4--4--4--0--|--------------------------|
|--2--2--2--2--2--2--2--2--|--2--2--2--2--2--2--2-----|--------------------------|
|--------------------------|--------------------------|--------------------------|

----------------------|
----------------------|
----2--4p2---------0--|
----0-------4p2h0--0--|
----------------------|
----------------------|
Tap to rate this tab
# A B C D E F G H I J K L M N O P Q R S T U V W X Y Z