Dinosaur Jr - On The Brink tab

Dinosaur Jr - On The Brink
From the album 'Without A Sound' (1994)

Standard tuning, capo on 3rd fret

---

I was trying to figure out Grab It (which I think has the capo on the 3rd fret as well),
also on Without A Sound, when I noticed the chords I was trying out were part
of On The Brink, so I thought i'd do the rest while I was at it ;D

Sounds like 2 guitars throughout most of the song - a lightly overdriven one playing the
main parts, with a bassy super fuzzed guitar quietly playing the same underneath, but without
the fills, just the chords themselves. The solo parts sound like it's just heavy fuzz
as well, with plenty of treble to get the harsh piercing sound you hear on the record.

The main guitar sounds like a Jazzmaster (or similar) using the middle pickup selection
(both pickups), though most guitars with two pickups in the same setting should get you
a close enough sound. Like I said also, light overdrive, it's not entirely clean.

---


==intro/verse

E|-----3----2--3p2---------------0---0------------------|
B|-----3----3------3--0h3---0----1---3---0h3p0----------|
G|--0-------2-------------0------0---2---------2h4p0-0--|
D|--0--------------------------2------------------------|
A|--2--------------------------3------------------------|
E|--3---------------------------------------------------|

last time through before the chorus, the end fill changes:

E|--3--3----2--3p2-------------------0-|-----------------|
B|--3--3----3------3--0h3---0----1---3-|--0h3p0-3p0h3p0--|
G|--0-------2-------------0------0---2-|-----------------|
D|--0--------------------------2-------|-----------------|
A|--2--------------------------3-------|-----------------|
E|--3----------------------------------|-----------------|


==chorus

E|--3--3--x-x--3--3--x-x-x-3-x-x--3--3--x-x--3--3--3-3-3-3-3-3--|
B|--1--1--x-x--1--1--x-x-x-1-x-x--1--1--x-x--1--1--1-1-1-1-1-1--|
G|--0--0--x-x--0--0--x-x-x-0-x-x--0--0--x-x--0--0--0-0-0-0-0-0--|
D|--2--2--x-x--2--2--x-x-x-2-x-x--2--2--x-x--2--2--2-2-2-2-2-2--|
A|--3--3-------3--3--------3------3--3-------3--3--3-3-3-3-3-3--|
E|--------------------------------------------------------------|
|
E|--0--2-x-x-2--2-2-2-2-2-2-2-2/7--x--5--x--2--3p2---3p2---2--|
B|--3--3-x-x-3--3-3-3-3-3-3-3----------------------3-----3----|<<--when the chorus comes
G|--2--2-x-x-2------------------------------------------------|    round the second time,
D|------------------------------------------------------------|    don't play the last two 
A|------------------------------------------------------------|    3s on this string
E|------------------------------------------------------------|
|
E|--3--3--x-x--3--3--x-x-x-3-x-x--3--3--x-x--3--3--3-3-3-3-3-3--|
B|--1--1--x-x--1--1--x-x-x-1-x-x--1--1--x-x--1--1--1-1-1-1-1-1--|
G|--0--0--x-x--0--0--x-x-x-0-x-x--0--0--x-x--0--0--0-0-0-0-0-0--|
D|--2--2--x-x--2--2--x-x-x-2-x-x--2--2--x-x--2--2--2-2-2-2-2-2--|
A|--3--3-------3--3--------3------3--3-------3--3--3-3-3-3-3-3--|
E|--------------------------------------------------------------|
|
E|--0--2-x-x-2--2------0----------------------|
B|--3--3-x-x-3----3-------3-----0h3p0---------|
G|--2--2-x-x-2------2--------2--------2h4p0---|
D|--------------------------------------------|
A|--------------------------------------------|
E|--------------------------------------------|


==bridge (also the rhythm for the rest of the song)
|
| the two guitars play slightly different things here, but this should be
| essentially what they're both roughly doing.
| 
E|-----2--2-----2--2-----2-----3--3-----3---3-3-3-3-3---0--0-0-----0-0-0-0-0-0---|
B|-----0--0-----0--0-----0-----1--1-x-x-1---1-1-1-1-1-0-1--1-1-x-x-1-1-1-1-1-1---| at 2:16-2:30,
G|-x-x-0--0-x-x-2--2-x-x-0-x-x-0--0-x-x-0---0-0-0-0-0-0-2--2-2-x-x-2-2-2-2-2-2-0-| palm mute this
D|-x-x-2--2-x-x-2--2-x-x-2-----2--2-x-x-2---2-2-2-2-2---2--2-2-x-x-2-2-2-2-2-2-0-| section
A|-x-x-2--2-x-x-2--2-x-x-2-----3--3-----3---3-3-3-3-3---0--0-0-----0-0-0-0-0-0---|
E|-----0--0-----0--0-----0-------------------------------------------------------|
|
E|--5-5-5-5-x-x-5-5-5-5-x-x-3-3-|
B|--3-3-3-3-x-x-3-3-3-3-x-x-3-3-|
G|--2-2-2-2-x-x-2-2-2-2-----2-2-|
D|------------------------------|
A|------------------------------|
E|------------------------------|


==solo (2:31-3:00)
|
|2:31
E|---------------------------------------------------------------------------------------|
B|----------------------------------------------------------10-----10-10/15-13--13/15-13-|
G|-12-10h12p10---------10/12-12-12-12--10h12p10-----10--12------12-----------------------|
D|-------------12~~-----------------------------12---------------------------------------|
A|---------------------------------------------------------------------------------------|
E|---------------------------------------------------------------------------------------|
|
|2:39
E|---------------------------------------------------------------------20b-r-18~--|
B|-15/18-20~--20b-18-20~---20brp18------------------------------------------------|
G|---------------------------------19~--19~-19~-19-20-19--17----------------------|
D|-----------------------------------------------------------20-19-20-------------|
A|--------------------------------------------------------------------------------|
E|--------------------------------------------------------------------------------|
|
|2:48
E|--20b-r-17~------------------------------17-18-17-20b-20--18-17---------------------|
B|---------------------------------18--20---------------------------18h20b--18h20~~-\-|
G|-----------------15h17p15--17/19----------------------------------------------------|
D|--------------17--------------------------------------------------------------------|
A|------------------------------------------------------------------------------------|
E|------------------------------------------------------------------------------------|



|--------------------------------------------------------
|p - pull-off
|h - hammer-on
|/ - slide up (\ = down)
|b - bend; release bend before next note, unless...
|r - release bend after holding it for a little
|~ - vibrato (if used on chords, use the tremelo)
|x - muted string strum
|PM - palm mute
|--------------------------------------------------------
Tap to rate this tab
 
# A B C D E F G H I J K L M N O P Q R S T U V W X Y Z