Song name
# A B C D E F G H I J K L M N O P Q R S T U V W X Y Z

Dinosaur Jr - I Know Yer Insane tab

----------------------------------------------------------------------------
		    I Know Yer Insane - Dinosaur Jr
----------------------------------------------------------------------------
Tabbed by: Ranciday
Email: julianpd@hotmail.co.uk

Pretty cool song. 

Tuning: Standard, but its easier with a capo on the 5th fret.

Intro/Chorus
e|-------5-6-5--5---8-5-5-5---8s10-5-5--------------------|
B|-8-8-8----------6---------6----------6------6-----6-----|
G|----------------------------------------5h7---5h7---5---|
D|--------------------------------------------------------|
A|--------------------------------------------------------|
E|--------------------------------------------------------|

e|-------5-6-5--5---8-5-5-5---8s10-5-5-----------|
B|-8-8-8----------6---------6----------6---6~----|
G|---------------------------------------7-------|
D|-----------------------------------------------|
A|-----------------------------------------------|
E|-----------------------------------------------|

Verse
e|------------8-5----------|x3
B|-6-6-6h8p6------6---6-6--|
G|------------------7------|
D|-------------------------|
A|-------------------------|
E|-------------------------|

e|-8--5-8-6---5----------------|
B|--------------6-----6--------|
G|----------------5-7----------|
D|-----------------------------|
A|-----------------------------|
E|-----------------------------|

Come on out...
e|-5-------6-----------------|
B|-6-------6-----------------|
G|-7-x-x-x-7-----------------|
D|-7-x-x-x-8-x-x-x-----------|
A|-5-x-x-x-8-x-x-x-----------|
E|---------6-x-x-x-----------|

Then its the chorus and then there this weird bit. 
The chords under the cool sounds and solo are...
e|------------------------|
B|------------------------|
G|-7-x-x-x----------------|
D|-7-x-x-x--10-x-x-x------|
A|-5-x-x-x--10-x-x-x------|
E|----------8--x-x-x------|

There you are. Dont forget to rate and leave a comment.
Tap to rate this tab
 
# A B C D E F G H I J K L M N O P Q R S T U V W X Y Z