Song name
# A B C D E F G H I J K L M N O P Q R S T U V W X Y Z

Dinosaur Jr - Grab It tab

----------------------------------------------------------------------------
			     Grab It - Dinosaur Jr
----------------------------------------------------------------------------
Tabbed by: Ranciday
Email:julianpd@hotmail.co.uk

Another tab from me

CAPO ON 5th FRET!!!!!!!!!!!!!!!!!!!!!!!!!! RELATIVE TO CAPO

Play this under solo.
e|-3-3-3-3-3-3-3-3-3-3-3-3-3-3-3-3-3-3-3-3-1-1-----1-1-0-------|
B|-1-1-1-1-1-1-1-1-1-1-1-1-1-1-1-1-1-1-1-1-3---3---------3---0-|
G|-2-2-2-2-2-2-2-2-2-2-0-0-0-0-0-0-0-0-0-0-2-----2---------2---|
D|-3-3-3-3-3-3-3-3-3-3-2-2-2-2-2-2-2-2-2-2-0-------------------|
A|-0-0-0-0-0-0-0-0-0-0-3-3-3-3-3-3-3-3-3-3---------------------|
E|-------------------------------------------------------------|

Im not feelin well
e|----------------------------------------------------|
B|---1-----1-----3-----3---0---1------1---------1-----|
G|-----0-----0-----0-----0-------2------2---0h2----0--|x4
D|-------2-----------0-------3------3-----3-----------|
A|-3-----------2--------------------------------------|
E|----------------------------------------------------|

Ill be in your room...
e|-3-3-3-3-3-3-3-3-3-3-3-3-3-3-3-3-3-3-3-3-1-1-----1-1-0-------|
B|-1-1-1-1-1-1-1-1-1-1-1-1-1-1-1-1-1-1-1-1-3---3---------3---0-|
G|-2-2-2-2-2-2-2-2-2-2-0-0-0-0-0-0-0-0-0-0-2-----2---------2---|
D|-3-3-3-3-3-3-3-3-3-3-2-2-2-2-2-2-2-2-2-2-0-------------------|x2
A|-0-0-0-0-0-0-0-0-0-0-3-3-3-3-3-3-3-3-3-3---------------------|
E|-------------------------------------------------------------|

repeat that and then the chorus goes like this:



e|---------------2-2-2-2-2-2-3-3-3-3-3-3-----|
B|---------------3-3-3-3-3-3-3-3-3-3-3-3-----|
G|-7-7-7-7-7-7-7-4-4-4-4-4-4-4-4-4-4-4-4-----|
D|-7-7-7-7-7-7-7-4-4-4-4-4-4-5-5-5-5-5-5-----| repeat this a few times
A|-5-5-5-5-5-5-5-2-2-2-2-2-2-5-5-5-5-5-5-----|
E|---------------------------3-3-3-3-3-3-----|

There you go

************************************

| /   slide up
| \   slide down
| h   hammer-on
| p   pull-off
| ~   vibrato
| +   harmonic
| x   Mute note
| b   Bend
| pb  Pre-bend
| br  Bend release
| pbr Pre-bend release
| brb Bend release bend

************************************
Tap to rate this tab
# A B C D E F G H I J K L M N O P Q R S T U V W X Y Z