Song name
# A B C D E F G H I J K L M N O P Q R S T U V W X Y Z

Dinosaur Jr - Even You tab

----------------------------------------------------------------------------
			     Even You - Dinosaur Jr
----------------------------------------------------------------------------
Tabbed by: Ranciday
Email: julianpd@hotmail.co.uk

Yet another tab from me. Pretty sure its about 95% accurate. 

Tuning: Standard

The time was when it ...
e|-3-3-3-3-3-3-7-7-7-1-1-1-1----|
B|-3-3-3-3-3-3-8-8-8-3-3-3-3----|
G|-5-5-5-4-4-4-9-9-9-2-2-2-2----|
D|-5-5-5-5-5-5-9-9-9-0-0-0-0----|
A|-3-3-3-5-5-5-7-7-7------------|
E|-------3-3-3------------------|

Now you gotta ...
e|-5-5-----5-------x-x-1-1-x-x-1-1-1--|
B|-6---6-----8-6-8-x-x-3-3-x-x-3-3-3--|
G|-7-----7---------x-x-2-2-x-x-2-2-2--|
D|-7---------------x-x-0-0-x-x-0-0-0--|
A|-0---------------x-x-----x-x--------|
E|-----------------x-x-----x-x--------|

Chorus:
e|-8-8-8-8-8-7-7-7-7-3~-3-3-3-3--|
B|-x-x-x-x-x-x-x-x-x-1~-1-1-1-1--|
G|-5-5-5-5-5-4-4-4-4-2~-2-2-2-2--|
D|-7-7-7-7-7-5-5-5-5-3~-3-3-3-3--|
A|-0-0-0-0-0-0-0-0-0-0~-0-0-0-0--|
E|-------------------------------|

e|-8-8-8-8-8-7-7-7-7-3~-3-3-3-3-----8p5-----8p5--|
B|-x-x-x-x-x-x-x-x-x-1~-1-1-1-1-3h5-----3h5------|
G|-5-5-5-5-5-4-4-4-4-2~-2-2-2-2------------------|
D|-7-7-7-7-7-5-5-5-5-3~-3-3-3-3------------------|
A|-0-0-0-0-0-0-0-0-0-0~-0-0-0-0------------------|
E|-----------------------------------------------|

When I Finally plan...
e|-8--8--8--8--7-7-7-7-1-1-1-------5---------------|
B|-8--8--8--8--8-8-8-8-1-1-1-5-6-8---8-6-5-6-5-8---|
G|-9--9--9--9--9-9-9-9-2-2-2-----------------------| (Play this under solo)
D|-10-10-10-10-9-9-9-9-3-3-3-----------------------|
A|-10-10-10-10-7-7-7-7-----------------------------|
E|-8--8--8--8--------------------------------------|

Just use these chod progressions in the right places.=)

Enjoy.
Tap to rate this tab
 
# A B C D E F G H I J K L M N O P Q R S T U V W X Y Z