Song name
# A B C D E F G H I J K L M N O P Q R S T U V W X Y Z

Dinosaur Jr - Over Your Shoulder tab

Here is another great song with no good tabs. Enjoy.

Hey, Look over your shoulder...
e|-2~---------0~-2-0-2-0-2-2-2-2---5-2-------------|
B|-3~-3-------2~-----------3-3---3-----3-0-3-0---0-|
G|-4~---4---4-2~-----------4-4-----------------0---|
D|-4~-----4---2~-----------4-4---------------------|
A|-2~---------0~-----------2-2---------------------|
E|-------------------------------------------------|


Hey, its me gettin older
e|-2~---------0~-2-0-2-0-2-2-2-2---5-5-5-2--------|
B|-3~-3-------2~-----------3-3---3-0-0-0---3-0----|
G|-4~---4---4-2~-----------4-4--------------------|
D|-4~-----4---2~-----------4-4--------------------|
A|-2~---------0~-----------2-2--------------------|
E|------------------------------------------------|

Always, thought I shoulda told you
e|-2~---------0~-2-2h3p2-0-2-2-2-2---5-2-------------|
B|-3~-3-------2~-------------3-3---3-----3---3-0---0-|
G|-4~---4---4-2~-------------4-4-----------0-----0---|
D|-4~-----4---2~-------------4-4---------------------|
A|-2~---------0~-------------2-2---------------------|
E|---------------------------------------------------|


Its allright but its sure gettin colder
e|-2~---------0~-2-2h3p2-0-2-2-2-5~-2~-----------|
B|-3~-3-------2~-------------3-3-------3-0-3-----|
G|-4~---4---4-2~-------------4-4-----------------|
D|-4~-----4---2~-------------4-4-----------------|
A|-2~---------0~-------------2-2-----------------|
E|-----------------------------------------------|

 I Know your over my shoulder
e|--------3-2-0-------0-----2-2-2----------------------------|
B|--------------0-------2-3-3-3-3-3-5-5s7s5-3h5p3------------|
G|----------------2-2-------4-4-4-----------------4-2h4p2----|
D|-5-4-2--------------------4-4-4-------------------------4-2|
A|--------------------------2-2-2----------------------------|
E|-----------------------------------------------------------|

Iknow, now you get to hold her
e|---3-2-0-------0-----2-2-2-0-0-5---7s9-5--------|
B|---------0-------2-3-3-3-3-2-2---7--------------|
G|-----------2-2-------4-4-4-2-2------------------|
D|---------------------4-4-4-2-2------------------|
A|---------------------2-2-2-0-0------------------|
E|------------------------------------------------|


Youre gone
e|-5-5-5-2h3p2----------------7s9--------|
B|-3-3---------3-0------10--------10-----|
G|-2-2-------------9-11----11------------|
D|---------------------------------------|x3
A|---------------------------------------|
E|---------------------------------------|

Cant be for long
e|-5-5-5-5-------0-2-3-2-------------|
B|-3-3-3-3-0-2-3---------3-0---------|
G|-2-2-2-2---------------------------|
D|-----------------------------------|
A|-----------------------------------|
E|-----------------------------------|

Just repeat whats above for the next verses and choruses
and then...

When I wake up
e|-5-5-5-5-5-2----------------|
B|-2-2-2-2-----0--------------|
G|-2-2-2-2-------4-4-4--------|
D|---------------4-4-4--------|
A|---------------2-2-2--------|
E|----------------------------|

And you were gone
e|-----0-0-0-0-0-0-0-0-0-0-0-0-0-0-0-0-----|
B|-----2-2-3-3-2-2-3-3-2-2-3-3-2-2-3-3-----|
G|-4-4-2-2-2-2-2-2-2-2-2-2-2-2-2-2-2-2-----|
D|-4-4-2-2-2-2-2-2-2-2-2-2-2-2-2-2-2-2-----|
A|-2-2-0-0-0-0-0-0-0-0-0-0-0-0-0-0-0-0-----|
E|-----------------------------------------|

Awesome riff:
e|-------------------------------|
B|-------------------------------|
G|------------7-6---7-6----------|
D|--7~7br-7-7-----7-----7-7br----|
A|-------------------------------|
E|-------------------------------|

e|-----------------------------------------------------------------------|
B|---------------------------------------------------------15------------|
G|-------------7-6---7-6-7-7s9-9-11-9-11-9-11-12-11-12s-14----14-12-11~--|
D|-----7~7br-7-----7-----------------------------------------------------|
A|-7-9-------------------------------------------------------------------|
E|-----------------------------------------------------------------------|

End on this:
e|-----2~-----|
B|-----3~-----|
G|-----2~-----|
D|-----0~-----|
A|------------|
E|------------|

Hope this helps
Tap to rate this tab
 
# A B C D E F G H I J K L M N O P Q R S T U V W X Y Z