Dinosaur Jr - Plans tab

This is the way that I like to play the song.  There are a lot of little variations with 
verse/chorus/etc on the album, but this is the basic progression of the song.  Enjoy!


Standard Tuning with Capo on 8th Fret.

Intro:
e------------0-------------0----|
B--3-3-3-0--3-3--3-3-3----3-3---|
G--0-0-0-0-0---0-2-2-2-2-2---2--| Repeat
D--2-2-2-2-------0-0-0-0--------|
A--3-3-3-3-------0-0-0-0--------|
E-------------------------------|


Verse:
e-------------------------------------------------2-0-------------------|
B----0----1----0--------------0----1----0----0-------3------------------|
G-----0----0----0--0--0--x2----0----0----0----0--2------2-0-----0-------|
D---2----2----0--------------2----2----0----0---0-----------4-2---4-2-0-|
A--2----3----2----2--0------2----3----2----2----0-----------------------|
E--0----0----3----3--2------0----0----3----3----------------------------|


Chorus:
e-------------------333-3-2-0---0h2--|
B---1-1111-1111-0---000-3-3-3-3-3--3-|
G---2-2222-0000-0---000-2-2-2---2--2-|Repeat
D---2-2222-2222-2---000-0-0-0---0--0-|
A-0--------3333-3-2------------------|
E-0---------------3------------------|


Bridge:
e--------------------------------------------------------------------333-|
B------------------1-1-11-1-1-111-------------------1-1-11-1-1-111---000-|
G------------------2-2-22-0-0-000-------------------2-2-22-0-0-000---000-|
D-2-22222222222222-2-2-22-2-2-222--2-22222222222222-2-2-22-2-2-222---000-|
A-2-22222222222222-0-0-00-3-3-333--2-22222222222222-0-0-00-3-3-333-2-----|
E-0-00000000000000-----------------0-00000000000000----------------3-----|

e---------|
B-1-1-111-|
G-2-2-222-|  Back to Intro...
D-2-2-222-|
A-0-0-000-|
E---------|
Tap to rate this tab
 
# A B C D E F G H I J K L M N O P Q R S T U V W X Y Z