Song name
# A B C D E F G H I J K L M N O P Q R S T U V W X Y Z

Dinosaur Jr - Sludgefeast tab

E----------------------------|
B----------------------------|
G--6--6--6-6--4-4------------|
D--6--6--6-6--6-6------------|
A--4--4--4-4--7-7------------|
E-------------0-0------------|


E---------------------------------|
B---------------------------------|
G--5/7----5h7-5h7--10---5-7-------|
D--5/7-------------10---5-7-------|
A--3/5-------------8----3-5-------|
E---------------------------------|

e--------------------|
B--9-7-9-10-7-5-3-2--|
G--------------------|
D--------------------|
A--------------------|
E--------------------|

verse
e--------------------------|
B--2--2--------------------|
G--2--2--2-2---2-----------|
D--2--2--4-4-4---4---------|
A--0--0--4-4---------------|
E--------2-2---------------|

e--------------2-----------|
B--------------3-----------|
G--4--4--7-7---2-----------|
D--4--4--7-7---0-----------|
A--2--2--5-5---------------|
E--------------------------|


SHRED. I wish I could play this solo, I usually blues scale in E/c#m


outro
e----------------------|
B----------------------|
G----------------------|
D--5--4-4-4--5--2-2-2--|
A--5--4-4-4--5--2-2-2--|
E--3--2-2-2--3--0-0-0--|


shred some mo'

corrections/suggestions/you suck?
mynameiscaio@gmail.com
Tap to rate this tab
 
# A B C D E F G H I J K L M N O P Q R S T U V W X Y Z