Song name
# A B C D E F G H I J K L M N O P Q R S T U V W X Y Z

Dinosaur Jr - Feel The Pain tab

-----------------------------------------------------------------------------

			     Feel the Pain - Dinosaur Jr.

-----------------------------------------------------------------------------
Tabbed by:North_African38
Email:Davidchoate@juno.com

Tuning: Standard

Intro/verses

C                  F
----------------------------------------------|
-----8----8---8---8---------------------------|
---9-----9---9---9---10-10-10-10-10-10-10-10--|
------10---10--10----10-10-10-10-10-10-10-10--|
---------------------8--8--8--8--8--8--8--8---|
-8--------------------------------------------|

Bridge

-3-3-3-3-3-3--8-8--8--8-8--8----8- -3-3-3-3-3-3--8-8--8--8-12---12---|
-3-5-5-3-5-3--8-10-10-8-10-8-8--8- -3-5-5-3-5-3--8-10-10-8-15^^-15^^-|
-----------------------------10--- ----------------------------------|
---------------------------------- ----------------------------------|
---------------------------------- ----------------------------------|
---------------------------------- ----------------------------------|


************************************

| /   slide up
| \   slide down
| h   hammer-on
| p   pull-off
| ~   vibrato
| +   harmonic
| x   Mute note
| b   Bend
| pb  Pre-bend
| br  Bend release
| pbr Pre-bend release
| brb Bend release bend

************************************
Tap to rate this tab
# A B C D E F G H I J K L M N O P Q R S T U V W X Y Z