Song name
# A B C D E F G H I J K L M N O P Q R S T U V W X Y Z

Dinosaur Jr - Watch The Corners tab

Dinosaur Jr.
"Watch The Corners"
Songwriter:J Mascis
From The Album: I Bet On Sky (2012)

These are just the chords. No strum patterns or solos are notated.

CAPO: 9th fret

Intro:

      Em

E------------|
B------------|
G------------|
D-----2------|
A-----2------|
E-----0------|

Verse: ("Every morning came...")

   G   D   Em  C  Am  Cmaj7

E--3---0---0---0---0-------------------|
B--3---3---0---1---1---0-----0-----0---|
G--0---2---0---0---2---0--0-----0----0-|
D--0---0---2---2---2---2---------------|
A--2-------2---3---0---3---------------|
E--3-------0---------------------------|

Pre-Chorus: ("And I want you to be with us...")

  Em       C       C     G    (G/F#)

E-----------------------------------|
B----------1-1-----1--1--3----------|
G-0-0------0-0-----0--0--0----------|
D-2-2------2-2-----2--2--0----------|
A-2-2------3-3-----3--3--2----------|
E-0-0--------------------3-----3-2--|

Chorus: ("Can I run..." + "Hey me, watch the corners")

  Am    C    G    D

E--0----0----3----2---------|
B--1----1----3----3---------|
G--2----0----0----2---------|
D--2----2----0----0---------|
A--0----3----2--------------|
E------------3--------------|
Tap to rate this tab
# A B C D E F G H I J K L M N O P Q R S T U V W X Y Z